  0
SECTION
  2
HEADER
  9
$ACADVER
  1
AC1012
  9
$DWGCODEPAGE
  3
dos932
  9
$INSBASE
 10
0.0
 20
0.0
 30
0.0
  9
$EXTMIN
 10
39.99999999999909
 20
-0.0000000000009059
 30
0.0
  9
$EXTMAX
 10
3760.000000000001
 20
5616.0
 30
0.0
  9
$LIMMIN
 10
0.0
 20
0.0
  9
$LIMMAX
 10
4200.0
 20
5940.0
  9
$ORTHOMODE
 70
     0
  9
$REGENMODE
 70
     1
  9
$FILLMODE
 70
     1
  9
$QTEXTMODE
 70
     0
  9
$MIRRTEXT
 70
     0
  9
$DRAGMODE
 70
     2
  9
$LTSCALE
 40
160.0
  9
$OSMODE
 70
     4
  9
$ATTMODE
 70
     1
  9
$TEXTSIZE
 40
60.0
  9
$TRACEWID
 40
0.05
  9
$TEXTSTYLE
  7
STANDARD
  9
$CLAYER
  8
SCALE
  9
$CELTYPE
  6
BYLAYER
  9
$CECOLOR
 62
   256
  9
$CELTSCALE
 40
1.0
  9
$DELOBJ
 70
     1
  9
$DISPSILH
 70
     0
  9
$DIMSCALE
 40
20.0
  9
$DIMASZ
 40
2.0
  9
$DIMEXO
 40
0.1
  9
$DIMDLI
 40
5.0
  9
$DIMRND
 40
0.0
  9
$DIMDLE
 40
0.0
  9
$DIMEXE
 40
1.8
  9
$DIMTP
 40
0.0
  9
$DIMTM
 40
0.0
  9
$DIMTXT
 40
2.5
  9
$DIMCEN
 40
0.1
  9
$DIMTSZ
 40
0.0
  9
$DIMTOL
 70
     0
  9
$DIMLIM
 70
     0
  9
$DIMTIH
 70
     0
  9
$DIMTOH
 70
     0
  9
$DIMSE1
 70
     0
  9
$DIMSE2
 70
     0
  9
$DIMTAD
 70
     0
  9
$DIMZIN
 70
     9
  9
$DIMBLK
  1
YAZ1
  9
$DIMASO
 70
     1
  9
$DIMSHO
 70
     0
  9
$DIMPOST
  1

  9
$DIMAPOST
  1

  9
$DIMALT
 70
     0
  9
$DIMALTD
 70
     2
  9
$DIMALTF
 40
25.4
  9
$DIMLFAC
 40
1.0
  9
$DIMTOFL
 70
     1
  9
$DIMTVP
 40
1.0
  9
$DIMTIX
 70
     0
  9
$DIMSOXD
 70
     0
  9
$DIMSAH
 70
     1
  9
$DIMBLK1
  1
YAZ1
  9
$DIMBLK2
  1
YAZ1
  9
$DIMSTYLE
  2
YAZ1
  9
$DIMCLRD
 70
   256
  9
$DIMCLRE
 70
   256
  9
$DIMCLRT
 70
   256
  9
$DIMTFAC
 40
1.0
  9
$DIMGAP
 40
0.0
  9
$DIMJUST
 70
     0
  9
$DIMSD1
 70
     0
  9
$DIMSD2
 70
     0
  9
$DIMTOLJ
 70
     1
  9
$DIMTZIN
 70
     9
  9
$DIMALTZ
 70
     9
  9
$DIMALTTZ
 70
     9
  9
$DIMFIT
 70
     5
  9
$DIMUPT
 70
     0
  9
$DIMUNIT
 70
     2
  9
$DIMDEC
 70
     4
  9
$DIMTDEC
 70
     4
  9
$DIMALTU
 70
     2
  9
$DIMALTTD
 70
     2
  9
$DIMTXSTY
  7
STANDARD
  9
$DIMAUNIT
 70
     0
  9
$LUNITS
 70
     2
  9
$LUPREC
 70
     2
  9
$SKETCHINC
 40
0.1
  9
$FILLETRAD
 40
0.0
  9
$AUNITS
 70
     0
  9
$AUPREC
 70
     0
  9
$MENU
  1
AMECEX
  9
$ELEVATION
 40
0.0
  9
$PELEVATION
 40
0.0
  9
$THICKNESS
 40
0.0
  9
$LIMCHECK
 70
     0
  9
$BLIPMODE
 70
     0
  9
$CHAMFERA
 40
0.0
  9
$CHAMFERB
 40
0.0
  9
$CHAMFERC
 40
0.0
  9
$CHAMFERD
 40
0.0
  9
$SKPOLY
 70
     0
  9
$TDCREATE
 40
2448726.744502315
  9
$TDUPDATE
 40
2453382.771573333
  9
$TDINDWG
 40
2.4875196644
  9
$TDUSRTIMER
 40
2.4875196644
  9
$USRTIMER
 70
     1
  9
$ANGBASE
 50
0.0
  9
$ANGDIR
 70
     0
  9
$PDMODE
 70
     0
  9
$PDSIZE
 40
0.0
  9
$PLINEWID
 40
0.0
  9
$COORDS
 70
     2
  9
$SPLFRAME
 70
     0
  9
$SPLINETYPE
 70
     6
  9
$SPLINESEGS
 70
     8
  9
$ATTDIA
 70
     1
  9
$ATTREQ
 70
     1
  9
$HANDLING
 70
-16383
  9
$HANDSEED
  5
6E07
  9
$SURFTAB1
 70
     6
  9
$SURFTAB2
 70
     6
  9
$SURFTYPE
 70
     6
  9
$SURFU
 70
     6
  9
$SURFV
 70
     6
  9
$UCSNAME
  2

  9
$UCSORG
 10
0.0
 20
0.0
 30
0.0
  9
$UCSXDIR
 10
1.0
 20
0.0
 30
0.0
  9
$UCSYDIR
 10
0.0
 20
1.0
 30
0.0
  9
$PUCSNAME
  2

  9
$PUCSORG
 10
0.0
 20
0.0
 30
0.0
  9
$PUCSXDIR
 10
1.0
 20
0.0
 30
0.0
  9
$PUCSYDIR
 10
0.0
 20
1.0
 30
0.0
  9
$USERI1
 70
     0
  9
$USERI2
 70
     0
  9
$USERI3
 70
     0
  9
$USERI4
 70
     0
  9
$USERI5
 70
     0
  9
$USERR1
 40
210.0
  9
$USERR2
 40
297.0
  9
$USERR3
 40
20.0
  9
$USERR4
 40
0.0
  9
$USERR5
 40
0.0
  9
$WORLDVIEW
 70
     1
  9
$SHADEDGE
 70
     3
  9
$SHADEDIF
 70
    70
  9
$TILEMODE
 70
     1
  9
$MAXACTVP
 70
    16
  9
$PINSBASE
 10
0.0
 20
0.0
 30
0.0
  9
$PLIMCHECK
 70
     0
  9
$PEXTMIN
 10
1.000000000000000E+20
 20
1.000000000000000E+20
 30
1.000000000000000E+20
  9
$PEXTMAX
 10
-1.000000000000000E+20
 20
-1.000000000000000E+20
 30
-1.000000000000000E+20
  9
$PLIMMIN
 10
0.0
 20
0.0
  9
$PLIMMAX
 10
12.0
 20
9.0
  9
$UNITMODE
 70
     0
  9
$VISRETAIN
 70
     0
  9
$PLINEGEN
 70
     0
  9
$PSLTSCALE
 70
     0
  9
$TREEDEPTH
 70
  3020
  9
$PICKSTYLE
 70
     1
  9
$CMLSTYLE
  2
STANDARD
  9
$CMLJUST
 70
     0
  9
$CMLSCALE
 40
1.0
  9
$SAVEIMAGES
 70
     1
  0
ENDSEC
  0
SECTION
  2
CLASSES
  0
CLASS
  1
ACDBDICTIONARYWDFLT
  2
AcDbDictionaryWithDefault
  3
AutoCAD 2000
 90
    32768
280
     0
281
     0
  0
CLASS
  1
ACDBPLACEHOLDER
  2
AcDbPlaceHolder
  3
AutoCAD 2000
 90
    32768
280
     0
281
     0
  0
CLASS
  1
LAYOUT
  2
AcDbLayout
  3
AutoCAD 2000
 90
    32768
280
     0
281
     0
  0
CLASS
  1
LONG_TRANSACTION
  2
AcDbLongTransaction
  3
AutoCAD 2000
 90
    32768
280
     0
281
     0
  0
CLASS
  1
LWPOLYLINE
  2
AcDbPolyline
  3
AutoCAD 2000
 90
    32768
280
     0
281
     1
  0
CLASS
  1
HATCH
  2
AcDbHatch
  3
AutoCAD 2000
 90
    32768
280
     0
281
     1
  0
CLASS
  1
XRECORD
  2
AcDbXrecord
  3
AutoCAD 2000
 90
    32768
280
     0
281
     0
  0
ENDSEC
  0
SECTION
  2
TABLES
  0
TABLE
  2
VPORT
  5
8
330
0
100
AcDbSymbolTable
 70
     2
  0
VPORT
  5
6DCC
330
8
100
AcDbSymbolTableRecord
100
AcDbViewportTableRecord
  2
*ACTIVE
 70
     0
 10
0.0
 20
0.0
 11
1.0
 21
1.0
 12
2100.0
 22
2970.0
 13
0.0
 23
0.0
 14
1.0
 24
1.0
 15
0.0
 25
0.0
 16
0.0
 26
0.0
 36
1.0
 17
0.0
 27
0.0
 37
0.0
 40
5940.0
 41
1.216791979949874
 42
50.0
 43
0.0
 44
0.0
 50
0.0
 51
0.0
 71
     0
 72
   100
 73
     1
 74
     1
 75
     0
 76
     0
 77
     0
 78
     0
  0
ENDTAB
  0
TABLE
  2
LTYPE
  5
5
330
0
100
AcDbSymbolTable
 70
     6
  0
LTYPE
  5
12
330
5
100
AcDbSymbolTableRecord
100
AcDbLinetypeTableRecord
  2
BYBLOCK
 70
     0
  3

 72
    65
 73
     0
 40
0.0
  0
LTYPE
  5
13
330
5
100
AcDbSymbolTableRecord
100
AcDbLinetypeTableRecord
  2
BYLAYER
 70
     0
  3

 72
    65
 73
     0
 40
0.0
  0
LTYPE
  5
14
330
5
100
AcDbSymbolTableRecord
100
AcDbLinetypeTableRecord
  2
CONTINUOUS
 70
     0
  3
Solid line
 72
    65
 73
     0
 40
0.0
  0
LTYPE
  5
39
330
5
100
AcDbSymbolTableRecord
100
AcDbLinetypeTableRecord
  2
HIDDEN
 70
     0
  3
_ _ _ _ _ _ _ _ _ _ _ _ _ _ _ _ _ _ _ _ _ _ _
 72
    65
 73
     2
 40
0.375
 49
0.25
 74
     0
 49
-0.125
 74
     0
  0
LTYPE
  5
3A
330
5
100
AcDbSymbolTableRecord
100
AcDbLinetypeTableRecord
  2
DASHDOT
 70
     0
  3
__ . __ . __ . __ . __ . __ . __ . __ . __ . __
 72
    65
 73
     4
 40
1.0
 49
0.5
 74
     0
 49
-0.25
 74
     0
 49
0.0
 74
     0
 49
-0.25
 74
     0
  0
LTYPE
  5
3B
330
5
100
AcDbSymbolTableRecord
100
AcDbLinetypeTableRecord
  2
CENTER
 70
     0
  3
____ _ ____ _ ____ _ ____ _ ____ _ ____ _ ____
 72
    65
 73
     4
 40
2.0
 49
1.25
 74
     0
 49
-0.25
 74
     0
 49
0.25
 74
     0
 49
-0.25
 74
     0
  0
LTYPE
  5
3C
330
5
100
AcDbSymbolTableRecord
100
AcDbLinetypeTableRecord
  2
DOT
 70
     0
  3
...............................................
 72
    65
 73
     2
 40
0.25
 49
0.0
 74
     0
 49
-0.25
 74
     0
  0
LTYPE
  5
3D
330
5
100
AcDbSymbolTableRecord
100
AcDbLinetypeTableRecord
  2
DASHED
 70
     0
  3
__ __ __ __ __ __ __ __ __ __ __ __ __ __ __
 72
    65
 73
     2
 40
0.75
 49
0.5
 74
     0
 49
-0.25
 74
     0
  0
ENDTAB
  0
TABLE
  2
LAYER
  5
2
330
0
100
AcDbSymbolTable
 70
    23
  0
LAYER
  5
F
330
2
100
AcDbSymbolTableRecord
100
AcDbLayerTableRecord
  2
0
 70
     0
 62
     7
  6
CONTINUOUS
  0
LAYER
  5
40
330
2
100
AcDbSymbolTableRecord
100
AcDbLayerTableRecord
  2
1
 70
     0
 62
     4
  6
CONTINUOUS
  0
LAYER
  5
41
330
2
100
AcDbSymbolTableRecord
100
AcDbLayerTableRecord
  2
HIDDEN
 70
     0
 62
     7
  6
HIDDEN
  0
LAYER
  5
42
330
2
100
AcDbSymbolTableRecord
100
AcDbLayerTableRecord
  2
CENTER
 70
     0
 62
     1
  6
CENTER
  0
LAYER
  5
43
330
2
100
AcDbSymbolTableRecord
100
AcDbLayerTableRecord
  2
GAWA
 70
     0
 62
     2
  6
CONTINUOUS
  0
LAYER
  5
44
330
2
100
AcDbSymbolTableRecord
100
AcDbLayerTableRecord
  2
HOJYO
 70
     0
 62
     6
  6
CONTINUOUS
  0
LAYER
  5
45
330
2
100
AcDbSymbolTableRecord
100
AcDbLayerTableRecord
  2
SCALE
 70
     0
 62
     4
  6
CONTINUOUS
  0
LAYER
  5
46
330
2
100
AcDbSymbolTableRecord
100
AcDbLayerTableRecord
  2
UL1
 70
     0
 62
     7
  6
CONTINUOUS
  0
LAYER
  5
47
330
2
100
AcDbSymbolTableRecord
100
AcDbLayerTableRecord
  2
UL2
 70
     0
 62
     7
  6
CONTINUOUS
  0
LAYER
  5
48
330
2
100
AcDbSymbolTableRecord
100
AcDbLayerTableRecord
  2
UL3
 70
     0
 62
     7
  6
CONTINUOUS
  0
LAYER
  5
49
330
2
100
AcDbSymbolTableRecord
100
AcDbLayerTableRecord
  2
UL4
 70
     0
 62
     7
  6
CONTINUOUS
  0
LAYER
  5
4A
330
2
100
AcDbSymbolTableRecord
100
AcDbLayerTableRecord
  2
UL5
 70
     0
 62
     7
  6
CONTINUOUS
  0
LAYER
  5
4B
330
2
100
AcDbSymbolTableRecord
100
AcDbLayerTableRecord
  2
UL6
 70
     0
 62
     7
  6
CONTINUOUS
  0
LAYER
  5
4C
330
2
100
AcDbSymbolTableRecord
100
AcDbLayerTableRecord
  2
UL7
 70
     0
 62
     7
  6
CONTINUOUS
  0
LAYER
  5
4D
330
2
100
AcDbSymbolTableRecord
100
AcDbLayerTableRecord
  2
UL8
 70
     0
 62
     7
  6
CONTINUOUS
  0
LAYER
  5
4E
330
2
100
AcDbSymbolTableRecord
100
AcDbLayerTableRecord
  2
UL9
 70
     0
 62
     7
  6
CONTINUOUS
  0
LAYER
  5
4F
330
2
100
AcDbSymbolTableRecord
100
AcDbLayerTableRecord
  2
UL10
 70
     0
 62
     7
  6
CONTINUOUS
  0
LAYER
  5
50
330
2
100
AcDbSymbolTableRecord
100
AcDbLayerTableRecord
  2
UL11
 70
     0
 62
     7
  6
CONTINUOUS
  0
LAYER
  5
51
330
2
100
AcDbSymbolTableRecord
100
AcDbLayerTableRecord
  2
UL12
 70
     0
 62
     7
  6
CONTINUOUS
  0
LAYER
  5
52
330
2
100
AcDbSymbolTableRecord
100
AcDbLayerTableRecord
  2
DEFPOINTS
 70
     0
 62
     7
  6
CONTINUOUS
  0
LAYER
  5
53
330
2
100
AcDbSymbolTableRecord
100
AcDbLayerTableRecord
  2
KARISEN
 70
     0
 62
     5
  6
DASHED
  0
LAYER
  5
54
330
2
100
AcDbSymbolTableRecord
100
AcDbLayerTableRecord
  2
HOJYO2
 70
     0
 62
     6
  6
HIDDEN
  0
LAYER
  5
55
330
2
100
AcDbSymbolTableRecord
100
AcDbLayerTableRecord
  2
ERROR
 70
     0
 62
     1
  6
HIDDEN
  0
ENDTAB
  0
TABLE
  2
STYLE
  5
3
330
0
100
AcDbSymbolTable
 70
     7
  0
STYLE
  5
10
330
3
100
AcDbSymbolTableRecord
100
AcDbTextStyleTableRecord
  2
STANDARD
 70
     0
 40
0.0
 41
1.0
 50
0.0
 71
     0
 42
60.0
  3
TXT
  4
bigfont
  0
STYLE
  5
33
330
3
100
AcDbSymbolTableRecord
100
AcDbTextStyleTableRecord
  2
SMP-SET
 70
     0
 40
0.0
 41
1.0
 50
0.0
 71
     0
 42
0.2
  3
SIMPLEX
  4
BIGFONT
  0
STYLE
  5
34
330
3
100
AcDbSymbolTableRecord
100
AcDbTextStyleTableRecord
  2
CMP-SET
 70
     0
 40
0.0
 41
1.0
 50
0.0
 71
     0
 42
0.2
  3
COMPLEX
  4
BIGFONT
  0
STYLE
  5
35
330
3
100
AcDbSymbolTableRecord
100
AcDbTextStyleTableRecord
  2
ITL-SET
 70
     0
 40
0.0
 41
1.0
 50
0.0
 71
     0
 42
0.2
  3
ITALIC
  4
BIGFONT
  0
STYLE
  5
36
330
3
100
AcDbSymbolTableRecord
100
AcDbTextStyleTableRecord
  2
MONO-SET
 70
     0
 40
0.0
 41
1.0
 50
0.0
 71
     0
 42
20.0
  3
MONOTXT
  4
BIGFONT
  0
STYLE
  5
37
330
3
100
AcDbSymbolTableRecord
100
AcDbTextStyleTableRecord
  2
KANJI
 70
     0
 40
0.0
 41
1.0
 50
0.0
 71
     0
 42
0.2
  3
txt.shx
  4
BIGFONT
  0
STYLE
  5
38
330
3
100
AcDbSymbolTableRecord
100
AcDbTextStyleTableRecord
  2
SIMPLEX
 70
     0
 40
0.0
 41
1.0
 50
0.0
 71
     0
 42
0.2
  3
SIMPLEX
  4

  0
ENDTAB
  0
TABLE
  2
VIEW
  5
6
330
0
100
AcDbSymbolTable
 70
     1
  0
VIEW
  5
3BC3
330
6
100
AcDbSymbolTableRecord
100
AcDbViewTableRecord
  2
ALL
 70
     0
 40
5940.0
 10
4625.667107001321
 20
2970.0
 41
9251.334214002643
 11
0.0
 21
0.0
 31
1.0
 12
0.0
 22
0.0
 32
0.0
 42
50.0
 43
0.0
 44
0.0
 50
0.0
 71
     0
  0
ENDTAB
  0
TABLE
  2
UCS
  5
7
330
0
100
AcDbSymbolTable
 70
     0
  0
ENDTAB
  0
TABLE
  2
APPID
  5
9
330
0
100
AcDbSymbolTable
 70
     1
  0
APPID
  5
11
330
9
100
AcDbSymbolTableRecord
100
AcDbRegAppTableRecord
  2
ACAD
 70
     0
  0
ENDTAB
  0
TABLE
  2
DIMSTYLE
  5
A
330
0
100
AcDbSymbolTable
 70
    10
  0
DIMSTYLE
105
3A6
330
A
100
AcDbSymbolTableRecord
100
AcDbDimStyleTableRecord
  2
STANDARD
 70
     0
  3

  4

  5

  6

  7

 40
1.0
 41
0.18
 42
0.0625
 43
0.38
 44
0.18
 45
0.0
 46
0.0
 47
0.0
 48
0.0
140
0.18
141
0.09
142
0.0
143
25.4
144
1.0
145
0.0
146
1.0
147
0.09
 71
     0
 72
     0
 73
     1
 74
     1
 75
     0
 76
     0
 77
     0
 78
     0
170
     0
171
     2
172
     0
173
     0
174
     0
175
     0
176
     0
177
     0
178
     0
270
     2
271
     4
272
     4
273
     2
274
     2
340
10
275
     0
280
     0
281
     0
282
     0
283
     1
284
     0
285
     0
286
     0
287
     3
288
     0
  0
DIMSTYLE
105
3CA
330
A
100
AcDbSymbolTableRecord
100
AcDbDimStyleTableRecord
  2
DOT1
 70
     0
  3

  4

  5
DOT1
  6
DOT1
  7
DOT1
 40
20.0
 41
1.0
 42
0.1
 43
5.0
 44
1.8
 45
0.0
 46
0.0
 47
0.0
 48
0.0
140
2.5
141
0.1
142
0.0
143
25.4
144
1.0
145
1.0
146
1.0
147
0.0
 71
     0
 72
     0
 73
     0
 74
     0
 75
     0
 76
     0
 77
     0
 78
     9
170
     0
171
     2
172
     1
173
     1
174
     0
175
     0
176
   256
177
   256
178
   256
270
     2
271
     2
272
     2
273
     2
274
     2
340
10
275
     0
280
     0
281
     0
282
     0
283
     1
284
     9
285
     9
286
     9
287
     5
288
     0
  0
DIMSTYLE
105
3CB
330
A
100
AcDbSymbolTableRecord
100
AcDbDimStyleTableRecord
  2
YAZ3
 70
     0
  3

  4

  5

  6

  7

 40
20.0
 41
2.0
 42
0.1
 43
5.0
 44
1.8
 45
0.0
 46
0.0
 47
0.0
 48
0.0
140
2.5
141
0.1
142
0.0
143
25.4
144
1.0
145
1.0
146
1.0
147
0.0
 71
     0
 72
     0
 73
     0
 74
     0
 75
     0
 76
     0
 77
     0
 78
     9
170
     0
171
     2
172
     1
173
     1
174
     0
175
     0
176
   256
177
   256
178
   256
270
     2
271
     2
272
     2
273
     2
274
     2
340
10
275
     0
280
     0
281
     0
282
     0
283
     1
284
     9
285
     9
286
     9
287
     5
288
     0
  0
DIMSTYLE
105
3CC
330
A
100
AcDbSymbolTableRecord
100
AcDbDimStyleTableRecord
  2
YAZ1
 70
     0
  3

  4

  5
YAZ1
  6
YAZ1
  7
YAZ1
 40
20.0
 41
2.0
 42
0.1
 43
5.0
 44
1.8
 45
0.0
 46
0.0
 47
0.0
 48
0.0
140
2.5
141
0.1
142
0.0
143
25.4
144
1.0
145
1.0
146
1.0
147
0.0
 71
     0
 72
     0
 73
     0
 74
     0
 75
     0
 76
     0
 77
     0
 78
     9
170
     0
171
     2
172
     1
173
     1
174
     0
175
     0
176
   256
177
   256
178
   256
270
     2
271
     2
272
     2
273
     2
274
     2
340
10
275
     0
280
     0
281
     0
282
     0
283
     1
284
     9
285
     9
286
     9
287
     5
288
     0
  0
DIMSTYLE
105
3CD
330
A
100
AcDbSymbolTableRecord
100
AcDbDimStyleTableRecord
  2
YAZ1$3
 70
     0
  3

  4

  5
YAZ1
  6
YAZ1
  7
YAZ1
 40
20.0
 41
2.0
 42
0.1
 43
5.0
 44
1.8
 45
0.0
 46
0.0
 47
0.0
 48
0.0
140
2.5
141
0.1
142
0.0
143
25.4
144
1.0
145
1.0
146
1.0
147
0.09
 71
     0
 72
     0
 73
     0
 74
     0
 75
     0
 76
     0
 77
     0
 78
     9
170
     0
171
     2
172
     1
173
     1
174
     1
175
     0
176
   256
177
   256
178
   256
270
     2
271
     2
272
     2
273
     2
274
     2
340
10
275
     0
280
     0
281
     0
282
     0
283
     1
284
     9
285
     9
286
     9
287
     3
288
     0
  0
DIMSTYLE
105
3CE
330
A
100
AcDbSymbolTableRecord
100
AcDbDimStyleTableRecord
  2
YAZ1$4
 70
     0
  3

  4

  5
YAZ1
  6
YAZ1
  7
YAZ1
 40
20.0
 41
2.0
 42
0.1
 43
5.0
 44
1.8
 45
0.0
 46
0.0
 47
0.0
 48
0.0
140
2.5
141
0.1
142
0.0
143
25.4
144
1.0
145
1.0
146
1.0
147
0.09
 71
     0
 72
     0
 73
     0
 74
     0
 75
     0
 76
     0
 77
     0
 78
     9
170
     0
171
     2
172
     1
173
     1
174
     1
175
     0
176
   256
177
   256
178
   256
270
     2
271
     2
272
     2
273
     2
274
     2
340
10
275
     0
280
     0
281
     0
282
     0
283
     1
284
     9
285
     9
286
     9
287
     3
288
     0
  0
DIMSTYLE
105
3CF
330
A
100
AcDbSymbolTableRecord
100
AcDbDimStyleTableRecord
  2
DOT1$3
 70
     0
  3

  4

  5
DOT1
  6
DOT1
  7
DOT1
 40
20.0
 41
1.0
 42
0.1
 43
5.0
 44
1.8
 45
0.0
 46
0.0
 47
0.0
 48
0.0
140
2.5
141
0.1
142
0.0
143
25.4
144
1.0
145
1.0
146
1.0
147
0.09
 71
     0
 72
     0
 73
     0
 74
     0
 75
     0
 76
     0
 77
     0
 78
     9
170
     0
171
     2
172
     1
173
     1
174
     1
175
     0
176
   256
177
   256
178
   256
270
     2
271
     2
272
     2
273
     2
274
     2
340
10
275
     0
280
     0
281
     0
282
     0
283
     1
284
     9
285
     9
286
     9
287
     3
288
     0
  0
DIMSTYLE
105
3D0
330
A
100
AcDbSymbolTableRecord
100
AcDbDimStyleTableRecord
  2
DOT1$4
 70
     0
  3

  4

  5
DOT1
  6
DOT1
  7
DOT1
 40
20.0
 41
1.0
 42
0.1
 43
5.0
 44
1.8
 45
0.0
 46
0.0
 47
0.0
 48
0.0
140
2.5
141
0.1
142
0.0
143
25.4
144
1.0
145
1.0
146
1.0
147
0.09
 71
     0
 72
     0
 73
     0
 74
     0
 75
     0
 76
     0
 77
     0
 78
     9
170
     0
171
     2
172
     1
173
     1
174
     1
175
     0
176
   256
177
   256
178
   256
270
     2
271
     2
272
     2
273
     2
274
     2
340
10
275
     0
280
     0
281
     0
282
     0
283
     1
284
     9
285
     9
286
     9
287
     3
288
     0
  0
DIMSTYLE
105
3D1
330
A
100
AcDbSymbolTableRecord
100
AcDbDimStyleTableRecord
  2
YAZ3$3
 70
     0
  3

  4

  5

  6

  7

 40
20.0
 41
2.0
 42
0.1
 43
5.0
 44
1.8
 45
0.0
 46
0.0
 47
0.0
 48
0.0
140
2.5
141
0.1
142
0.0
143
25.4
144
1.0
145
1.0
146
1.0
147
0.09
 71
     0
 72
     0
 73
     0
 74
     0
 75
     0
 76
     0
 77
     0
 78
     9
170
     0
171
     2
172
     1
173
     1
174
     1
175
     0
176
   256
177
   256
178
   256
270
     2
271
     2
272
     2
273
     2
274
     2
340
10
275
     0
280
     0
281
     0
282
     0
283
     1
284
     9
285
     9
286
     9
287
     3
288
     0
  0
DIMSTYLE
105
3D2
330
A
100
AcDbSymbolTableRecord
100
AcDbDimStyleTableRecord
  2
YAZ3$4
 70
     0
  3

  4

  5

  6

  7

 40
20.0
 41
2.0
 42
0.1
 43
5.0
 44
1.8
 45
0.0
 46
0.0
 47
0.0
 48
0.0
140
2.5
141
0.1
142
0.0
143
25.4
144
1.0
145
1.0
146
1.0
147
0.09
 71
     0
 72
     0
 73
     0
 74
     0
 75
     0
 76
     0
 77
     0
 78
     9
170
     0
171
     2
172
     1
173
     1
174
     1
175
     0
176
   256
177
   256
178
   256
270
     2
271
     2
272
     2
273
     2
274
     2
340
10
275
     0
280
     0
281
     0
282
     0
283
     1
284
     9
285
     9
286
     9
287
     3
288
     0
  0
ENDTAB
  0
TABLE
  2
BLOCK_RECORD
  5
1
330
0
100
AcDbSymbolTable
 70
    25
  0
BLOCK_RECORD
  5
18
102
{ACAD_XDICTIONARY
360
6DCF
102
}
330
1
100
AcDbSymbolTableRecord
100
AcDbBlockTableRecord
  2
*MODEL_SPACE
  0
BLOCK_RECORD
  5
15
102
{ACAD_XDICTIONARY
360
6DCD
102
}
330
1
100
AcDbSymbolTableRecord
100
AcDbBlockTableRecord
  2
*PAPER_SPACE
  0
BLOCK_RECORD
  5
1C
330
1
100
AcDbSymbolTableRecord
100
AcDbBlockTableRecord
  2
INSLYTXT
  0
BLOCK_RECORD
  5
1D
330
1
100
AcDbSymbolTableRecord
100
AcDbBlockTableRecord
  2
YAZ1
  0
BLOCK_RECORD
  5
3B2
330
1
100
AcDbSymbolTableRecord
100
AcDbBlockTableRecord
  2
DOT1
  0
ENDTAB
  0
ENDSEC
  0
SECTION
  2
BLOCKS
  0
BLOCK
  5
58
330
18
100
AcDbEntity
  8
0
100
AcDbBlockBegin
  2
*MODEL_SPACE
 70
     0
 10
0.0
 20
0.0
 30
0.0
  3
*MODEL_SPACE
  1

  0
ENDBLK
  5
59
330
18
100
AcDbEntity
  8
0
100
AcDbBlockEnd
  0
BLOCK
  5
56
330
15
100
AcDbEntity
 67
     1
  8
0
100
AcDbBlockBegin
  2
*PAPER_SPACE
 70
     0
 10
0.0
 20
0.0
 30
0.0
  3
*PAPER_SPACE
  1

  0
ENDBLK
  5
57
330
15
100
AcDbEntity
 67
     1
  8
0
100
AcDbBlockEnd
  0
BLOCK
  5
5A
330
1C
100
AcDbEntity
  8
0
100
AcDbBlockBegin
  2
INSLYTXT
 70
     0
 10
0.0
 20
0.0
 30
0.0
  3
INSLYTXT
  1

  0
ENDBLK
  5
5B
330
1C
100
AcDbEntity
  8
0
100
AcDbBlockEnd
  0
BLOCK
  5
5C
330
1D
100
AcDbEntity
  8
0
100
AcDbBlockBegin
  2
YAZ1
 70
     0
 10
184.0
 20
133.0
 30
0.0
  3
YAZ1
  1

  0
LINE
  5
5D
330
1D
100
AcDbEntity
  8
0
100
AcDbLine
 10
184.0
 20
133.0
 30
0.0
 11
183.0
 21
132.7320508075688
 31
0.0
  0
LINE
  5
5E
330
1D
100
AcDbEntity
  8
0
100
AcDbLine
 10
184.0
 20
133.0
 30
0.0
 11
183.0
 21
133.2679491924311
 31
0.0
  0
LINE
  5
5F
330
1D
100
AcDbEntity
  8
0
100
AcDbLine
 10
183.0
 20
133.0
 30
0.0
 11
184.0
 21
133.0
 31
0.0
  0
ENDBLK
  5
60
330
1D
100
AcDbEntity
  8
0
100
AcDbBlockEnd
  0
BLOCK
  5
3B8
330
3B2
100
AcDbEntity
  8
0
100
AcDbBlockBegin
  2
DOT1
 70
     0
 10
184.0
 20
131.0
 30
0.0
  3
DOT1
  1

  0
LINE
  5
3B3
330
3B2
100
AcDbEntity
  8
0
100
AcDbLine
 10
183.0
 20
131.0
 30
0.0
 11
184.0
 21
131.0
 31
0.0
  0
POLYLINE
  5
3B4
330
3B2
100
AcDbEntity
  8
0
100
AcDb2dPolyline
 66
     1
 10
0.0
 20
0.0
 30
0.0
 70
     1
 40
0.25
 41
0.25
  0
VERTEX
  5
6DD1
330
3B4
100
AcDbEntity
  8
0
100
AcDbVertex
100
AcDb2dVertex
 10
183.875
 20
131.0
 30
0.0
 42
1.0
  0
VERTEX
  5
6DD2
330
3B4
100
AcDbEntity
  8
0
100
AcDbVertex
100
AcDb2dVertex
 10
184.125
 20
131.0
 30
0.0
 42
1.0
  0
SEQEND
  5
6DD3
330
3B4
100
AcDbEntity
  8
0
  0
ENDBLK
  5
3B9
330
3B2
100
AcDbEntity
  8
0
100
AcDbBlockEnd
  0
ENDSEC
  0
SECTION
  2
ENTITIES
  0
INSERT
  5
91
330
18
100
AcDbEntity
  8
0
100
AcDbBlockReference
  2
INSLYTXT
 10
0.0
 20
0.0
 30
0.0
  0
TEXT
  5
180
330
18
100
AcDbEntity
  8
1
100
AcDbText
 10
180.0
 20
2900.0
 30
0.0
 40
60.0
  1
＜基礎ボルト位置＞
100
AcDbText
  0
TEXT
  5
520
330
18
100
AcDbEntity
  8
1
100
AcDbText
 10
931.6666666666666
 20
30.0
 30
0.0
 40
50.0
  1
1
  7
MONO-SET
 72
     1
 11
940.0
 21
30.0
 31
0.0
100
AcDbText
  0
TEXT
  5
521
330
18
100
AcDbEntity
  8
1
100
AcDbText
 10
1032.5
 20
30.0
 30
0.0
 40
50.0
  1
20
  7
MONO-SET
 72
     1
 11
1070.0
 21
30.0
 31
0.0
100
AcDbText
  0
INSERT
  5
A86
330
18
100
AcDbEntity
  8
0
100
AcDbBlockReference
  2
INSLYTXT
 10
2512.261080710007
 20
878.7322660464106
 30
0.0
  0
MTEXT
  5
D69
330
18
100
AcDbEntity
  8
1
100
AcDbMText
 10
768.6414971703798
 20
1043.945255187753
 30
0.0
 40
20.0
 41
14.85009665453981
 71
     1
 72
     1
  1

  7
MONO-SET
1001
ACAD
1000
MTEXTBEGIN
1070
    73
1070
     1
1070
    44
1040
1.0
1070
    74
1070
     0
1000
MTEXTEND
  0
LINE
  5
1EB0
330
18
100
AcDbEntity
  8
0
100
AcDbLine
 10
1043.0
 20
4355.0
 30
0.0
 11
772.0
 21
4355.0
 31
0.0
  0
LINE
  5
1EB1
330
18
100
AcDbEntity
  8
0
100
AcDbLine
 10
772.0
 20
4799.999999999999
 30
0.0
 11
1043.0
 21
4799.999999999999
 31
0.0
  0
LINE
  5
1EB6
330
18
100
AcDbEntity
  8
0
100
AcDbLine
 10
736.0
 20
2629.998731850532
 30
0.0
 11
1007.0
 21
2629.998731850532
 31
0.0
  0
LINE
  5
1EBA
330
18
100
AcDbEntity
  8
0
100
AcDbLine
 10
1007.0
 20
2407.498731850533
 30
0.0
 11
736.0
 21
2407.498731850533
 31
0.0
  0
LINE
  5
1EC2
330
18
100
AcDbEntity
  8
0
100
AcDbLine
 10
730.0
 20
2413.498731850532
 30
0.0
 11
730.0
 21
2623.998731850532
 31
0.0
  0
LINE
  5
1EE4
330
18
100
AcDbEntity
  8
0
100
AcDbLine
 10
1013.0
 20
2623.998731850532
 30
0.0
 11
1013.0
 21
2413.498731850532
 31
0.0
  0
LINE
  5
1F04
330
18
100
AcDbEntity
  8
CENTER
100
AcDbLine
 10
788.0
 20
4325.0
 30
0.0
 11
803.0
 21
4325.0
 31
0.0
  0
LINE
  5
1F05
330
18
100
AcDbEntity
  8
CENTER
100
AcDbLine
 10
788.0
 20
4830.0
 30
0.0
 11
803.0
 21
4830.0
 31
0.0
  0
LINE
  5
1F1F
330
18
100
AcDbEntity
  8
CENTER
100
AcDbLine
 10
788.0
 20
4325.0
 30
0.0
 11
788.0
 21
4310.0
 31
0.0
  0
LINE
  5
1F21
330
18
100
AcDbEntity
  8
CENTER
100
AcDbLine
 10
788.0
 20
4325.0
 30
0.0
 11
773.0
 21
4325.0
 31
0.0
  0
LINE
  5
1F22
330
18
100
AcDbEntity
  8
CENTER
100
AcDbLine
 10
788.0
 20
4325.0
 30
0.0
 11
788.0
 21
4340.0
 31
0.0
  0
LINE
  5
1F24
330
18
100
AcDbEntity
  8
CENTER
100
AcDbLine
 10
788.0
 20
4830.0
 30
0.0
 11
773.0
 21
4830.0
 31
0.0
  0
LINE
  5
1F26
330
18
100
AcDbEntity
  8
CENTER
100
AcDbLine
 10
788.0
 20
4830.0
 30
0.0
 11
788.0
 21
4845.0
 31
0.0
  0
LINE
  5
1F27
330
18
100
AcDbEntity
  8
CENTER
100
AcDbLine
 10
788.0
 20
4830.0
 30
0.0
 11
788.0
 21
4815.0
 31
0.0
  0
LINE
  5
1F28
330
18
100
AcDbEntity
  8
0
100
AcDbLine
 10
760.0
 20
4367.0
 30
0.0
 11
760.0
 21
4787.999999999999
 31
0.0
  0
LINE
  5
271D
330
18
100
AcDbEntity
  8
SCALE
100
AcDbLine
 10
1429.348874534276
 20
5065.000000000001
 30
0.0
 11
2152.56061361681
 21
5065.000000000001
 31
0.0
  0
TEXT
  5
271E
330
18
100
AcDbEntity
  8
SCALE
100
AcDbText
 10
1448.820627993206
 20
5080.485579912078
 30
0.0
 40
50.0
  1
4-%%C16 ＜機器取付穴＞
100
AcDbText
  0
INSERT
  5
2FE1
330
18
100
AcDbEntity
  8
0
100
AcDbBlockReference
  2
INSLYTXT
 10
8770.853854620979
 20
1497.661517583645
 30
0.0
  0
INSERT
  5
3004
330
18
100
AcDbEntity
  8
0
100
AcDbBlockReference
  2
INSLYTXT
 10
8106.722383445257
 20
735.7125183838665
 30
0.0
  0
INSERT
  5
308D
330
18
100
AcDbEntity
  8
0
100
AcDbBlockReference
  2
INSLYTXT
 10
7202.841364806094
 20
604.7251708388568
 30
0.0
  0
INSERT
  5
3158
330
18
100
AcDbEntity
  8
0
100
AcDbBlockReference
  2
INSLYTXT
 10
7701.02340064626
 20
638.8238354657508
 30
0.0
  0
INSERT
  5
3159
330
18
100
AcDbEntity
  8
0
100
AcDbBlockReference
  2
INSLYTXT
 10
7910.115373890407
 20
638.8238354657508
 30
0.0
 41
0.5
 42
0.5
 43
0.5
  0
INSERT
  5
315A
330
18
100
AcDbEntity
  8
0
100
AcDbBlockReference
  2
INSLYTXT
 10
7910.115373890407
 20
638.8238354657508
 30
0.0
 41
0.5
 42
0.5
 43
0.5
  0
INSERT
  5
315B
330
18
100
AcDbEntity
  8
1
100
AcDbBlockReference
  2
INSLYTXT
 10
7910.115373890407
 20
638.8238354657508
 30
0.0
 41
0.5
 42
0.5
 43
0.5
  0
INSERT
  5
31E3
330
18
100
AcDbEntity
  8
0
100
AcDbBlockReference
  2
INSLYTXT
 10
6633.015064983185
 20
145.4270681964902
 30
0.0
  0
INSERT
  5
31E4
330
18
100
AcDbEntity
  8
0
100
AcDbBlockReference
  2
INSLYTXT
 10
6842.107038227332
 20
145.4270681964902
 30
0.0
 41
0.5
 42
0.5
 43
0.5
  0
INSERT
  5
31E5
330
18
100
AcDbEntity
  8
0
100
AcDbBlockReference
  2
INSLYTXT
 10
6842.107038227332
 20
145.4270681964902
 30
0.0
 41
0.5
 42
0.5
 43
0.5
  0
INSERT
  5
31E6
330
18
100
AcDbEntity
  8
1
100
AcDbBlockReference
  2
INSLYTXT
 10
6842.107038227332
 20
145.4270681964902
 30
0.0
 41
0.5
 42
0.5
 43
0.5
  0
INSERT
  5
31E7
330
18
100
AcDbEntity
  8
0
100
AcDbBlockReference
  2
INSLYTXT
 10
6584.441277717124
 20
163.7532447773075
 30
0.0
  0
INSERT
  5
31E8
330
18
100
AcDbEntity
  8
0
100
AcDbBlockReference
  2
INSLYTXT
 10
6642.345050018753
 20
270.3014955611619
 30
0.0
  0
INSERT
  5
31E9
330
18
100
AcDbEntity
  8
0
100
AcDbBlockReference
  2
INSLYTXT
 10
6811.385096208393
 20
114.5417222215497
 30
0.0
  0
INSERT
  5
31EA
330
18
100
AcDbEntity
  8
0
100
AcDbBlockReference
  2
INSLYTXT
 10
6744.644870722741
 20
164.0046403075838
 30
0.0
  0
INSERT
  5
31EB
330
18
100
AcDbEntity
  8
0
100
AcDbBlockReference
  2
INSLYTXT
 10
6913.68491691238
 20
8.244866967971631
 30
0.0
  0
INSERT
  5
3270
330
18
100
AcDbEntity
  8
0
100
AcDbBlockReference
  2
INSLYTXT
 10
6827.639907167839
 20
100.2816387397482
 30
0.0
  0
INSERT
  5
3271
330
18
100
AcDbEntity
  8
0
100
AcDbBlockReference
  2
INSLYTXT
 10
7036.731880411986
 20
100.2816387397482
 30
0.0
 41
0.5
 42
0.5
 43
0.5
  0
INSERT
  5
3272
330
18
100
AcDbEntity
  8
0
100
AcDbBlockReference
  2
INSLYTXT
 10
7036.731880411986
 20
100.2816387397482
 30
0.0
 41
0.5
 42
0.5
 43
0.5
  0
INSERT
  5
3273
330
18
100
AcDbEntity
  8
1
100
AcDbBlockReference
  2
INSLYTXT
 10
7036.731880411986
 20
100.2816387397482
 30
0.0
 41
0.5
 42
0.5
 43
0.5
  0
INSERT
  5
3274
330
18
100
AcDbEntity
  8
0
100
AcDbBlockReference
  2
INSLYTXT
 10
6764.099437911383
 20
73.27109829792295
 30
0.0
  0
INSERT
  5
3275
330
18
100
AcDbEntity
  8
0
100
AcDbBlockReference
  2
INSLYTXT
 10
6830.104926064369
 20
136.24420173744
 30
0.0
  0
INSERT
  5
3276
330
18
100
AcDbEntity
  8
0
100
AcDbBlockReference
  2
INSLYTXT
 10
7039.196899308516
 20
136.24420173744
 30
0.0
 41
0.5
 42
0.5
 43
0.5
  0
INSERT
  5
3277
330
18
100
AcDbEntity
  8
0
100
AcDbBlockReference
  2
INSLYTXT
 10
7039.196899308516
 20
136.24420173744
 30
0.0
 41
0.5
 42
0.5
 43
0.5
  0
INSERT
  5
3278
330
18
100
AcDbEntity
  8
1
100
AcDbBlockReference
  2
INSLYTXT
 10
7039.196899308516
 20
136.24420173744
 30
0.0
 41
0.5
 42
0.5
 43
0.5
  0
INSERT
  5
3279
330
18
100
AcDbEntity
  8
0
100
AcDbBlockReference
  2
INSLYTXT
 10
6819.542051957154
 20
135.7413938569837
 30
0.0
  0
INSERT
  5
327A
330
18
100
AcDbEntity
  8
0
100
AcDbBlockReference
  2
INSLYTXT
 10
7028.634025201302
 20
135.7413938569837
 30
0.0
 41
0.5
 42
0.5
 43
0.5
  0
INSERT
  5
327B
330
18
100
AcDbEntity
  8
0
100
AcDbBlockReference
  2
INSLYTXT
 10
7028.634025201302
 20
135.7413938569837
 30
0.0
 41
0.5
 42
0.5
 43
0.5
  0
INSERT
  5
327C
330
18
100
AcDbEntity
  8
1
100
AcDbBlockReference
  2
INSLYTXT
 10
7028.634025201302
 20
135.7413938569837
 30
0.0
 41
0.5
 42
0.5
 43
0.5
  0
INSERT
  5
3345
330
18
100
AcDbEntity
  8
0
100
AcDbBlockReference
  2
INSLYTXT
 10
11080.64804153923
 20
1698.488197354208
 30
0.0
  0
INSERT
  5
3346
330
18
100
AcDbEntity
  8
0
100
AcDbBlockReference
  2
INSLYTXT
 10
10416.51657036351
 20
936.5391981544293
 30
0.0
  0
INSERT
  5
3347
330
18
100
AcDbEntity
  8
0
100
AcDbBlockReference
  2
INSLYTXT
 10
9512.635551724349
 20
805.5518506094196
 30
0.0
  0
INSERT
  5
3348
330
18
100
AcDbEntity
  8
0
100
AcDbBlockReference
  2
INSLYTXT
 10
10010.81758756451
 20
839.6505152363136
 30
0.0
  0
INSERT
  5
3349
330
18
100
AcDbEntity
  8
0
100
AcDbBlockReference
  2
INSLYTXT
 10
10219.90956080866
 20
839.6505152363136
 30
0.0
 41
0.5
 42
0.5
 43
0.5
  0
INSERT
  5
334A
330
18
100
AcDbEntity
  8
0
100
AcDbBlockReference
  2
INSLYTXT
 10
10219.90956080866
 20
839.6505152363136
 30
0.0
 41
0.5
 42
0.5
 43
0.5
  0
INSERT
  5
334B
330
18
100
AcDbEntity
  8
1
100
AcDbBlockReference
  2
INSLYTXT
 10
10219.90956080866
 20
839.6505152363136
 30
0.0
 41
0.5
 42
0.5
 43
0.5
  0
INSERT
  5
334C
330
18
100
AcDbEntity
  8
0
100
AcDbBlockReference
  2
INSLYTXT
 10
8942.809251901442
 20
346.253747967053
 30
0.0
  0
INSERT
  5
334D
330
18
100
AcDbEntity
  8
0
100
AcDbBlockReference
  2
INSLYTXT
 10
9151.901225145588
 20
346.253747967053
 30
0.0
 41
0.5
 42
0.5
 43
0.5
  0
INSERT
  5
334E
330
18
100
AcDbEntity
  8
0
100
AcDbBlockReference
  2
INSLYTXT
 10
9151.901225145588
 20
346.253747967053
 30
0.0
 41
0.5
 42
0.5
 43
0.5
  0
INSERT
  5
334F
330
18
100
AcDbEntity
  8
1
100
AcDbBlockReference
  2
INSLYTXT
 10
9151.901225145588
 20
346.253747967053
 30
0.0
 41
0.5
 42
0.5
 43
0.5
  0
INSERT
  5
3350
330
18
100
AcDbEntity
  8
0
100
AcDbBlockReference
  2
INSLYTXT
 10
8894.235464635379
 20
364.5799245478704
 30
0.0
  0
INSERT
  5
3351
330
18
100
AcDbEntity
  8
0
100
AcDbBlockReference
  2
INSLYTXT
 10
8952.139236937007
 20
471.1281753317247
 30
0.0
  0
INSERT
  5
3352
330
18
100
AcDbEntity
  8
0
100
AcDbBlockReference
  2
INSLYTXT
 10
9121.179283126648
 20
315.3684019921125
 30
0.0
  0
INSERT
  5
3353
330
18
100
AcDbEntity
  8
0
100
AcDbBlockReference
  2
INSLYTXT
 10
9054.439057640996
 20
364.8313200781466
 30
0.0
  0
INSERT
  5
3354
330
18
100
AcDbEntity
  8
0
100
AcDbBlockReference
  2
INSLYTXT
 10
9223.479103830635
 20
209.0715467385344
 30
0.0
  0
INSERT
  5
3355
330
18
100
AcDbEntity
  8
0
100
AcDbBlockReference
  2
INSLYTXT
 10
9137.434094086094
 20
301.108318510311
 30
0.0
  0
INSERT
  5
3356
330
18
100
AcDbEntity
  8
0
100
AcDbBlockReference
  2
INSLYTXT
 10
9346.526067330243
 20
301.108318510311
 30
0.0
 41
0.5
 42
0.5
 43
0.5
  0
INSERT
  5
3357
330
18
100
AcDbEntity
  8
0
100
AcDbBlockReference
  2
INSLYTXT
 10
9346.526067330243
 20
301.108318510311
 30
0.0
 41
0.5
 42
0.5
 43
0.5
  0
INSERT
  5
3358
330
18
100
AcDbEntity
  8
1
100
AcDbBlockReference
  2
INSLYTXT
 10
9346.526067330243
 20
301.108318510311
 30
0.0
 41
0.5
 42
0.5
 43
0.5
  0
INSERT
  5
3359
330
18
100
AcDbEntity
  8
0
100
AcDbBlockReference
  2
INSLYTXT
 10
9073.89362482964
 20
274.0977780684857
 30
0.0
  0
INSERT
  5
335A
330
18
100
AcDbEntity
  8
0
100
AcDbBlockReference
  2
INSLYTXT
 10
9139.899112982623
 20
337.0708815080029
 30
0.0
  0
INSERT
  5
335B
330
18
100
AcDbEntity
  8
0
100
AcDbBlockReference
  2
INSLYTXT
 10
9348.991086226773
 20
337.0708815080029
 30
0.0
 41
0.5
 42
0.5
 43
0.5
  0
INSERT
  5
335C
330
18
100
AcDbEntity
  8
0
100
AcDbBlockReference
  2
INSLYTXT
 10
9348.991086226773
 20
337.0708815080029
 30
0.0
 41
0.5
 42
0.5
 43
0.5
  0
INSERT
  5
335D
330
18
100
AcDbEntity
  8
1
100
AcDbBlockReference
  2
INSLYTXT
 10
9348.991086226773
 20
337.0708815080029
 30
0.0
 41
0.5
 42
0.5
 43
0.5
  0
INSERT
  5
335E
330
18
100
AcDbEntity
  8
0
100
AcDbBlockReference
  2
INSLYTXT
 10
9129.33623887541
 20
336.5680736275466
 30
0.0
  0
INSERT
  5
335F
330
18
100
AcDbEntity
  8
0
100
AcDbBlockReference
  2
INSLYTXT
 10
9338.428212119557
 20
336.5680736275466
 30
0.0
 41
0.5
 42
0.5
 43
0.5
  0
INSERT
  5
3360
330
18
100
AcDbEntity
  8
0
100
AcDbBlockReference
  2
INSLYTXT
 10
9338.428212119557
 20
336.5680736275466
 30
0.0
 41
0.5
 42
0.5
 43
0.5
  0
INSERT
  5
3361
330
18
100
AcDbEntity
  8
1
100
AcDbBlockReference
  2
INSLYTXT
 10
9338.428212119557
 20
336.5680736275466
 30
0.0
 41
0.5
 42
0.5
 43
0.5
  0
LINE
  5
3F8B
330
18
100
AcDbEntity
  8
CENTER
100
AcDbLine
 10
762.5000387828732
 20
2635.133036422486
 30
0.0
 11
762.5000387828732
 21
2654.864399670879
 31
0.0
  0
LINE
  5
3F8C
330
18
100
AcDbEntity
  8
CENTER
100
AcDbLine
 10
752.6343571586768
 20
2644.998718046682
 30
0.0
 11
772.3657204070697
 21
2644.998718046682
 31
0.0
  0
LINE
  5
3F8D
330
18
100
AcDbEntity
  8
CENTER
100
AcDbLine
 10
970.6343571586767
 20
2644.998718046682
 30
0.0
 11
990.3657204070695
 21
2644.998718046682
 31
0.0
  0
LINE
  5
3F8E
330
18
100
AcDbEntity
  8
CENTER
100
AcDbLine
 10
980.5000387828732
 20
2635.133036422486
 30
0.0
 11
980.5000387828732
 21
2654.864399670879
 31
0.0
  0
LINE
  5
3F90
330
18
100
AcDbEntity
  8
CENTER
100
AcDbLine
 10
752.6343571586768
 20
2392.498718046682
 30
0.0
 11
772.3657204070697
 21
2392.498718046682
 31
0.0
  0
LINE
  5
3F91
330
18
100
AcDbEntity
  8
CENTER
100
AcDbLine
 10
762.5000387828732
 20
2382.633036422486
 30
0.0
 11
762.5000387828732
 21
2402.364399670879
 31
0.0
  0
LINE
  5
3F94
330
18
100
AcDbEntity
  8
CENTER
100
AcDbLine
 10
970.6343571586767
 20
2392.498718046682
 30
0.0
 11
990.3657204070695
 21
2392.498718046682
 31
0.0
  0
LINE
  5
3F95
330
18
100
AcDbEntity
  8
CENTER
100
AcDbLine
 10
980.5000387828732
 20
2382.633036422486
 30
0.0
 11
980.5000387828732
 21
2402.364399670879
 31
0.0
  0
MTEXT
  5
44E4
330
18
100
AcDbEntity
  8
SCALE
100
AcDbMText
 10
862.9227897387245
 20
2327.354748419729
 30
0.0
 40
50.0
 41
0.0
 71
     4
 72
     1
  1
\A1;4-\U+220516
1001
ACAD
1000
MTEXTBEGIN
1070
    73
1070
     1
1070
    44
1040
1.0
1070
    74
1070
     0
1000
MTEXTEND
  0
TEXT
  5
44E5
330
18
100
AcDbEntity
  8
1
100
AcDbText
 10
693.9746080462428
 20
2229.089790064837
 30
0.0
 40
50.0
  1
(基礎ﾎﾞﾙﾄは､お客様にて御用意下さい｡)
100
AcDbText
  0
LINE
  5
44E6
330
18
100
AcDbEntity
  8
SCALE
100
AcDbLine
 10
821.8645404653361
 20
2291.859873270398
 30
0.0
 11
1747.71908186296
 21
2291.859873270398
 31
0.0
  0
LINE
  5
44E7
330
18
100
AcDbEntity
  8
SCALE
100
AcDbLine
 10
782.8228090443172
 20
2358.046105933947
 30
0.0
 11
821.8645404653361
 21
2291.859873270398
 31
0.0
  0
INSERT
  5
44EB
330
18
100
AcDbEntity
  8
SCALE
100
AcDbBlockReference
  2
YAZ1
 10
762.5
 20
2392.498731850532
 30
0.0
 41
40.0
 42
40.0
 43
40.0
 50
120.535373753703
  0
TEXT
  5
44EC
330
18
100
AcDbEntity
  8
1
100
AcDbText
 10
1158.765164281894
 20
2301.117110629289
 30
0.0
 40
50.0
  1
＜基礎ボルト穴＞
100
AcDbText
  0
CIRCLE
  5
4506
330
18
100
AcDbEntity
  8
SCALE
100
AcDbCircle
 10
788.0
 20
4325.0
 30
0.0
 40
8.0
  0
INSERT
  5
4869
330
18
100
AcDbEntity
  8
0
100
AcDbBlockReference
  2
INSLYTXT
 10
3939.509290689875
 20
137.1414008619631
 30
0.0
  0
INSERT
  5
489F
330
18
100
AcDbEntity
  8
0
100
AcDbBlockReference
  2
INSLYTXT
 10
6451.770371399881
 20
1015.873666908373
 30
0.0
  0
MTEXT
  5
48A4
330
18
100
AcDbEntity
  8
1
100
AcDbMText
 10
4708.150787860255
 20
1181.086656049716
 30
0.0
 40
20.0
 41
14.85009665453981
 71
     1
 72
     1
  1

  7
MONO-SET
1001
ACAD
1000
MTEXTBEGIN
1070
    73
1070
     1
1070
    44
1040
1.0
1070
    74
1070
     0
1000
MTEXTEND
  0
INSERT
  5
48D6
330
18
100
AcDbEntity
  8
0
100
AcDbBlockReference
  2
INSLYTXT
 10
12710.36314531085
 20
1634.802918445608
 30
0.0
  0
INSERT
  5
48D7
330
18
100
AcDbEntity
  8
0
100
AcDbBlockReference
  2
INSLYTXT
 10
12046.23167413513
 20
872.8539192458297
 30
0.0
  0
INSERT
  5
48D8
330
18
100
AcDbEntity
  8
0
100
AcDbBlockReference
  2
INSLYTXT
 10
11142.35065549596
 20
741.8665717008199
 30
0.0
  0
INSERT
  5
48D9
330
18
100
AcDbEntity
  8
0
100
AcDbBlockReference
  2
INSLYTXT
 10
11640.53269133613
 20
775.965236327714
 30
0.0
  0
INSERT
  5
48DA
330
18
100
AcDbEntity
  8
0
100
AcDbBlockReference
  2
INSLYTXT
 10
11849.62466458028
 20
775.965236327714
 30
0.0
 41
0.5
 42
0.5
 43
0.5
  0
INSERT
  5
48DB
330
18
100
AcDbEntity
  8
0
100
AcDbBlockReference
  2
INSLYTXT
 10
11849.62466458028
 20
775.965236327714
 30
0.0
 41
0.5
 42
0.5
 43
0.5
  0
INSERT
  5
48DC
330
18
100
AcDbEntity
  8
1
100
AcDbBlockReference
  2
INSLYTXT
 10
11849.62466458028
 20
775.965236327714
 30
0.0
 41
0.5
 42
0.5
 43
0.5
  0
INSERT
  5
48DD
330
18
100
AcDbEntity
  8
0
100
AcDbBlockReference
  2
INSLYTXT
 10
10572.52435567306
 20
282.5684690584533
 30
0.0
  0
INSERT
  5
48DE
330
18
100
AcDbEntity
  8
0
100
AcDbBlockReference
  2
INSLYTXT
 10
10781.6163289172
 20
282.5684690584533
 30
0.0
 41
0.5
 42
0.5
 43
0.5
  0
INSERT
  5
48DF
330
18
100
AcDbEntity
  8
0
100
AcDbBlockReference
  2
INSLYTXT
 10
10781.6163289172
 20
282.5684690584533
 30
0.0
 41
0.5
 42
0.5
 43
0.5
  0
INSERT
  5
48E0
330
18
100
AcDbEntity
  8
1
100
AcDbBlockReference
  2
INSLYTXT
 10
10781.6163289172
 20
282.5684690584533
 30
0.0
 41
0.5
 42
0.5
 43
0.5
  0
INSERT
  5
48E1
330
18
100
AcDbEntity
  8
0
100
AcDbBlockReference
  2
INSLYTXT
 10
10523.95056840699
 20
300.8946456392707
 30
0.0
  0
INSERT
  5
48E2
330
18
100
AcDbEntity
  8
0
100
AcDbBlockReference
  2
INSLYTXT
 10
10581.85434070862
 20
407.442896423125
 30
0.0
  0
INSERT
  5
48E3
330
18
100
AcDbEntity
  8
0
100
AcDbBlockReference
  2
INSLYTXT
 10
10750.89438689826
 20
251.6831230835128
 30
0.0
  0
INSERT
  5
48E4
330
18
100
AcDbEntity
  8
0
100
AcDbBlockReference
  2
INSLYTXT
 10
10684.15416141261
 20
301.1460411695469
 30
0.0
  0
INSERT
  5
48E5
330
18
100
AcDbEntity
  8
0
100
AcDbBlockReference
  2
INSLYTXT
 10
10853.19420760225
 20
145.3862678299347
 30
0.0
  0
INSERT
  5
48E6
330
18
100
AcDbEntity
  8
0
100
AcDbBlockReference
  2
INSLYTXT
 10
10767.14919785771
 20
237.4230396017113
 30
0.0
  0
INSERT
  5
48E7
330
18
100
AcDbEntity
  8
0
100
AcDbBlockReference
  2
INSLYTXT
 10
10976.24117110186
 20
237.4230396017113
 30
0.0
 41
0.5
 42
0.5
 43
0.5
  0
INSERT
  5
48E8
330
18
100
AcDbEntity
  8
0
100
AcDbBlockReference
  2
INSLYTXT
 10
10976.24117110186
 20
237.4230396017113
 30
0.0
 41
0.5
 42
0.5
 43
0.5
  0
INSERT
  5
48E9
330
18
100
AcDbEntity
  8
1
100
AcDbBlockReference
  2
INSLYTXT
 10
10976.24117110186
 20
237.4230396017113
 30
0.0
 41
0.5
 42
0.5
 43
0.5
  0
INSERT
  5
48EA
330
18
100
AcDbEntity
  8
0
100
AcDbBlockReference
  2
INSLYTXT
 10
10703.60872860125
 20
210.412499159886
 30
0.0
  0
INSERT
  5
48EB
330
18
100
AcDbEntity
  8
0
100
AcDbBlockReference
  2
INSLYTXT
 10
10769.61421675424
 20
273.3856025994032
 30
0.0
  0
INSERT
  5
48EC
330
18
100
AcDbEntity
  8
0
100
AcDbBlockReference
  2
INSLYTXT
 10
10978.70618999839
 20
273.3856025994032
 30
0.0
 41
0.5
 42
0.5
 43
0.5
  0
INSERT
  5
48ED
330
18
100
AcDbEntity
  8
0
100
AcDbBlockReference
  2
INSLYTXT
 10
10978.70618999839
 20
273.3856025994032
 30
0.0
 41
0.5
 42
0.5
 43
0.5
  0
INSERT
  5
48EE
330
18
100
AcDbEntity
  8
1
100
AcDbBlockReference
  2
INSLYTXT
 10
10978.70618999839
 20
273.3856025994032
 30
0.0
 41
0.5
 42
0.5
 43
0.5
  0
INSERT
  5
48EF
330
18
100
AcDbEntity
  8
0
100
AcDbBlockReference
  2
INSLYTXT
 10
10759.05134264703
 20
272.8827947189468
 30
0.0
  0
INSERT
  5
48F0
330
18
100
AcDbEntity
  8
0
100
AcDbBlockReference
  2
INSLYTXT
 10
10968.14331589117
 20
272.8827947189468
 30
0.0
 41
0.5
 42
0.5
 43
0.5
  0
INSERT
  5
48F1
330
18
100
AcDbEntity
  8
0
100
AcDbBlockReference
  2
INSLYTXT
 10
10968.14331589117
 20
272.8827947189468
 30
0.0
 41
0.5
 42
0.5
 43
0.5
  0
INSERT
  5
48F2
330
18
100
AcDbEntity
  8
1
100
AcDbBlockReference
  2
INSLYTXT
 10
10968.14331589117
 20
272.8827947189468
 30
0.0
 41
0.5
 42
0.5
 43
0.5
  0
INSERT
  5
48F3
330
18
100
AcDbEntity
  8
0
100
AcDbBlockReference
  2
INSLYTXT
 10
15020.1573322291
 20
1835.629598216171
 30
0.0
  0
INSERT
  5
48F4
330
18
100
AcDbEntity
  8
0
100
AcDbBlockReference
  2
INSLYTXT
 10
14356.02586105338
 20
1073.680599016392
 30
0.0
  0
INSERT
  5
48F5
330
18
100
AcDbEntity
  8
0
100
AcDbBlockReference
  2
INSLYTXT
 10
13452.14484241422
 20
942.6932514713827
 30
0.0
  0
INSERT
  5
48F6
330
18
100
AcDbEntity
  8
0
100
AcDbBlockReference
  2
INSLYTXT
 10
13950.32687825439
 20
976.7919160982769
 30
0.0
  0
INSERT
  5
48F7
330
18
100
AcDbEntity
  8
0
100
AcDbBlockReference
  2
INSLYTXT
 10
14159.41885149853
 20
976.7919160982769
 30
0.0
 41
0.5
 42
0.5
 43
0.5
  0
INSERT
  5
48F8
330
18
100
AcDbEntity
  8
0
100
AcDbBlockReference
  2
INSLYTXT
 10
14159.41885149853
 20
976.7919160982769
 30
0.0
 41
0.5
 42
0.5
 43
0.5
  0
INSERT
  5
48F9
330
18
100
AcDbEntity
  8
1
100
AcDbBlockReference
  2
INSLYTXT
 10
14159.41885149853
 20
976.7919160982769
 30
0.0
 41
0.5
 42
0.5
 43
0.5
  0
INSERT
  5
48FA
330
18
100
AcDbEntity
  8
0
100
AcDbBlockReference
  2
INSLYTXT
 10
12882.31854259131
 20
483.3951488290161
 30
0.0
  0
INSERT
  5
48FB
330
18
100
AcDbEntity
  8
0
100
AcDbBlockReference
  2
INSLYTXT
 10
13091.41051583546
 20
483.3951488290161
 30
0.0
 41
0.5
 42
0.5
 43
0.5
  0
INSERT
  5
48FC
330
18
100
AcDbEntity
  8
0
100
AcDbBlockReference
  2
INSLYTXT
 10
13091.41051583546
 20
483.3951488290161
 30
0.0
 41
0.5
 42
0.5
 43
0.5
  0
INSERT
  5
48FD
330
18
100
AcDbEntity
  8
1
100
AcDbBlockReference
  2
INSLYTXT
 10
13091.41051583546
 20
483.3951488290161
 30
0.0
 41
0.5
 42
0.5
 43
0.5
  0
INSERT
  5
48FE
330
18
100
AcDbEntity
  8
0
100
AcDbBlockReference
  2
INSLYTXT
 10
12833.74475532525
 20
501.7213254098335
 30
0.0
  0
INSERT
  5
48FF
330
18
100
AcDbEntity
  8
0
100
AcDbBlockReference
  2
INSLYTXT
 10
12891.64852762688
 20
608.2695761936878
 30
0.0
  0
INSERT
  5
4900
330
18
100
AcDbEntity
  8
0
100
AcDbBlockReference
  2
INSLYTXT
 10
13060.68857381652
 20
452.5098028540756
 30
0.0
  0
INSERT
  5
4901
330
18
100
AcDbEntity
  8
0
100
AcDbBlockReference
  2
INSLYTXT
 10
12993.94834833087
 20
501.9727209401097
 30
0.0
  0
INSERT
  5
4902
330
18
100
AcDbEntity
  8
0
100
AcDbBlockReference
  2
INSLYTXT
 10
13162.98839452051
 20
346.2129476004975
 30
0.0
  0
INSERT
  5
4903
330
18
100
AcDbEntity
  8
0
100
AcDbBlockReference
  2
INSLYTXT
 10
13076.94338477596
 20
438.2497193722741
 30
0.0
  0
INSERT
  5
4904
330
18
100
AcDbEntity
  8
0
100
AcDbBlockReference
  2
INSLYTXT
 10
13286.03535802011
 20
438.2497193722741
 30
0.0
 41
0.5
 42
0.5
 43
0.5
  0
INSERT
  5
4905
330
18
100
AcDbEntity
  8
0
100
AcDbBlockReference
  2
INSLYTXT
 10
13286.03535802011
 20
438.2497193722741
 30
0.0
 41
0.5
 42
0.5
 43
0.5
  0
INSERT
  5
4906
330
18
100
AcDbEntity
  8
1
100
AcDbBlockReference
  2
INSLYTXT
 10
13286.03535802011
 20
438.2497193722741
 30
0.0
 41
0.5
 42
0.5
 43
0.5
  0
INSERT
  5
4907
330
18
100
AcDbEntity
  8
0
100
AcDbBlockReference
  2
INSLYTXT
 10
13013.40291551951
 20
411.2391789304489
 30
0.0
  0
INSERT
  5
4908
330
18
100
AcDbEntity
  8
0
100
AcDbBlockReference
  2
INSLYTXT
 10
13079.4084036725
 20
474.212282369966
 30
0.0
  0
INSERT
  5
4909
330
18
100
AcDbEntity
  8
0
100
AcDbBlockReference
  2
INSLYTXT
 10
13288.50037691664
 20
474.212282369966
 30
0.0
 41
0.5
 42
0.5
 43
0.5
  0
INSERT
  5
490A
330
18
100
AcDbEntity
  8
0
100
AcDbBlockReference
  2
INSLYTXT
 10
13288.50037691664
 20
474.212282369966
 30
0.0
 41
0.5
 42
0.5
 43
0.5
  0
INSERT
  5
490B
330
18
100
AcDbEntity
  8
1
100
AcDbBlockReference
  2
INSLYTXT
 10
13288.50037691664
 20
474.212282369966
 30
0.0
 41
0.5
 42
0.5
 43
0.5
  0
INSERT
  5
490C
330
18
100
AcDbEntity
  8
0
100
AcDbBlockReference
  2
INSLYTXT
 10
13068.84552956528
 20
473.7094744895097
 30
0.0
  0
INSERT
  5
490D
330
18
100
AcDbEntity
  8
0
100
AcDbBlockReference
  2
INSLYTXT
 10
13277.93750280943
 20
473.7094744895097
 30
0.0
 41
0.5
 42
0.5
 43
0.5
  0
INSERT
  5
490E
330
18
100
AcDbEntity
  8
0
100
AcDbBlockReference
  2
INSLYTXT
 10
13277.93750280943
 20
473.7094744895097
 30
0.0
 41
0.5
 42
0.5
 43
0.5
  0
INSERT
  5
490F
330
18
100
AcDbEntity
  8
1
100
AcDbBlockReference
  2
INSLYTXT
 10
13277.93750280943
 20
473.7094744895097
 30
0.0
 41
0.5
 42
0.5
 43
0.5
  0
CIRCLE
  5
4CE1
330
18
100
AcDbEntity
  8
SCALE
100
AcDbCircle
 10
788.0
 20
4829.999999999985
 30
0.0
 40
8.0
  0
LINE
  5
4D03
330
18
100
AcDbEntity
  8
1
100
AcDbLine
 10
700.0
 20
4844.999999999998
 30
0.0
 11
715.0
 21
4859.999999999999
 31
0.0
  0
LINE
  5
4D04
330
18
100
AcDbEntity
  8
1
100
AcDbLine
 10
772.0
 20
4859.999999999999
 30
0.0
 11
715.0
 21
4859.999999999999
 31
0.0
  0
LINE
  5
4D05
330
18
100
AcDbEntity
  8
1
100
AcDbLine
 10
700.0
 20
4787.999999999999
 30
0.0
 11
700.0
 21
4844.999999999998
 31
0.0
  0
LINE
  5
4D06
330
18
100
AcDbEntity
  8
1
100
AcDbLine
 10
760.0
 20
4793.999999999999
 30
0.0
 11
751.0
 21
4793.999999999999
 31
0.0
  0
LINE
  5
4D07
330
18
100
AcDbEntity
  8
1
100
AcDbLine
 10
760.0
 20
4787.999999999999
 30
0.0
 11
700.0
 21
4787.999999999999
 31
0.0
  0
LINE
  5
4D08
330
18
100
AcDbEntity
  8
1
100
AcDbLine
 10
766.0
 20
4808.999999999999
 30
0.0
 11
757.0
 21
4808.999999999999
 31
0.0
  0
LINE
  5
4D09
330
18
100
AcDbEntity
  8
CENTER
100
AcDbLine
 10
729.9999787173187
 20
4854.999958427463
 30
0.0
 11
729.9999787173187
 21
4804.999958427463
 31
0.0
  0
LINE
  5
4D0A
330
18
100
AcDbEntity
  8
1
100
AcDbLine
 10
717.9999887173189
 20
4823.071758427463
 30
0.0
 11
717.9999887173189
 21
4836.928170427462
 31
0.0
  0
LINE
  5
4D0B
330
18
100
AcDbEntity
  8
1
100
AcDbLine
 10
741.999968717319
 20
4823.071758427463
 30
0.0
 11
741.999968717319
 21
4836.928170427462
 31
0.0
  0
CIRCLE
  5
4D0C
330
18
100
AcDbEntity
  8
1
100
AcDbCircle
 10
729.9999787173187
 20
4829.999958427463
 30
0.0
 40
11.499999
  0
CIRCLE
  5
4D0D
330
18
100
AcDbEntity
  8
1
100
AcDbCircle
 10
729.9999787173187
 20
4829.999958427463
 30
0.0
 40
6.999999799999999
  0
CIRCLE
  5
4D0E
330
18
100
AcDbEntity
  8
1
100
AcDbCircle
 10
729.9999787173187
 20
4829.999958427463
 30
0.0
 40
8.0
  0
CIRCLE
  5
4D0F
330
18
100
AcDbEntity
  8
1
100
AcDbCircle
 10
729.9999787173187
 20
4829.999958427463
 30
0.0
 40
20.0
  0
LINE
  5
4D10
330
18
100
AcDbEntity
  8
1
100
AcDbLine
 10
751.0
 20
4793.999999999999
 30
0.0
 11
700.0
 21
4793.999999999999
 31
0.0
  0
LINE
  5
4D11
330
18
100
AcDbEntity
  8
CENTER
100
AcDbLine
 10
754.9999787173187
 20
4829.999958427463
 30
0.0
 11
704.9999787173187
 21
4829.999958427463
 31
0.0
  0
ARC
  5
4D12
330
18
100
AcDbEntity
  8
1
100
AcDbCircle
 10
757.0
 20
4802.999999999999
 30
0.0
 40
6.0
100
AcDbArc
 50
89.99999999999991
 51
179.9999999999999
  0
LINE
  5
4D13
330
18
100
AcDbEntity
  8
1
100
AcDbLine
 10
751.0
 20
4802.999999999999
 30
0.0
 11
751.0
 21
4793.999999999999
 31
0.0
  0
LINE
  5
4D14
330
18
100
AcDbEntity
  8
1
100
AcDbLine
 10
729.9999787173187
 20
4816.143568427463
 30
0.0
 11
741.999968717319
 21
4823.071768427462
 31
0.0
  0
LINE
  5
4D15
330
18
100
AcDbEntity
  8
1
100
AcDbLine
 10
717.9999887173189
 20
4823.071758427463
 30
0.0
 11
729.9999787173187
 21
4816.143568427463
 31
0.0
  0
LINE
  5
4D16
330
18
100
AcDbEntity
  8
1
100
AcDbLine
 10
729.9999787173187
 20
4843.856361427462
 30
0.0
 11
741.999968717319
 21
4836.928170427462
 31
0.0
  0
LINE
  5
4D17
330
18
100
AcDbEntity
  8
1
100
AcDbLine
 10
729.9999787173187
 20
4843.856361427462
 30
0.0
 11
717.9999887173189
 21
4836.928170427462
 31
0.0
  0
LINE
  5
4D18
330
18
100
AcDbEntity
  8
1
100
AcDbLine
 10
772.0
 20
4799.999999999999
 30
0.0
 11
772.0
 21
4859.999999999999
 31
0.0
  0
LINE
  5
4D19
330
18
100
AcDbEntity
  8
1
100
AcDbLine
 10
766.0
 20
4859.999999999999
 30
0.0
 11
766.0
 21
4808.999999999999
 31
0.0
  0
LINE
  5
4D1A
330
18
100
AcDbEntity
  8
1
100
AcDbLine
 10
766.0
 20
4808.999999999999
 30
0.0
 11
766.0
 21
4799.999999999999
 31
0.0
  0
ARC
  5
4D1B
330
18
100
AcDbEntity
  8
1
100
AcDbCircle
 10
760.0
 20
4799.999999999999
 30
0.0
 40
6.0
100
AcDbArc
 50
270.0
 51
359.9999999999998
  0
ARC
  5
4D1C
330
18
100
AcDbEntity
  8
1
100
AcDbCircle
 10
760.0
 20
4799.999999999999
 30
0.0
 40
12.0
100
AcDbArc
 50
269.9999999999997
 51
0.0
  0
LINE
  5
4D51
330
18
100
AcDbEntity
  8
1
100
AcDbLine
 10
700.0
 20
4310.000000000001
 30
0.0
 11
715.0
 21
4295.0
 31
0.0
  0
LINE
  5
4D52
330
18
100
AcDbEntity
  8
1
100
AcDbLine
 10
772.0
 20
4295.0
 30
0.0
 11
715.0
 21
4295.0
 31
0.0
  0
LINE
  5
4D53
330
18
100
AcDbEntity
  8
1
100
AcDbLine
 10
700.0
 20
4367.0
 30
0.0
 11
700.0
 21
4310.000000000001
 31
0.0
  0
LINE
  5
4D54
330
18
100
AcDbEntity
  8
1
100
AcDbLine
 10
760.0
 20
4361.0
 30
0.0
 11
751.0
 21
4361.0
 31
0.0
  0
LINE
  5
4D55
330
18
100
AcDbEntity
  8
1
100
AcDbLine
 10
760.0
 20
4367.0
 30
0.0
 11
700.0
 21
4367.0
 31
0.0
  0
LINE
  5
4D56
330
18
100
AcDbEntity
  8
1
100
AcDbLine
 10
766.0
 20
4346.0
 30
0.0
 11
757.0
 21
4346.0
 31
0.0
  0
LINE
  5
4D57
330
18
100
AcDbEntity
  8
CENTER
100
AcDbLine
 10
729.9999787173187
 20
4300.000041572537
 30
0.0
 11
729.9999787173187
 21
4350.000041572537
 31
0.0
  0
LINE
  5
4D58
330
18
100
AcDbEntity
  8
1
100
AcDbLine
 10
717.9999887173189
 20
4331.928241572537
 30
0.0
 11
717.9999887173189
 21
4318.071829572537
 31
0.0
  0
LINE
  5
4D59
330
18
100
AcDbEntity
  8
1
100
AcDbLine
 10
741.999968717319
 20
4331.928241572537
 30
0.0
 11
741.999968717319
 21
4318.071829572537
 31
0.0
  0
CIRCLE
  5
4D5A
330
18
100
AcDbEntity
  8
1
100
AcDbCircle
 10
729.9999787173187
 20
4325.000041572537
 30
0.0
 40
11.499999
  0
CIRCLE
  5
4D5B
330
18
100
AcDbEntity
  8
1
100
AcDbCircle
 10
729.9999787173187
 20
4325.000041572537
 30
0.0
 40
6.999999799999999
  0
CIRCLE
  5
4D5C
330
18
100
AcDbEntity
  8
1
100
AcDbCircle
 10
729.9999787173187
 20
4325.000041572537
 30
0.0
 40
8.0
  0
CIRCLE
  5
4D5D
330
18
100
AcDbEntity
  8
1
100
AcDbCircle
 10
729.9999787173187
 20
4325.000041572537
 30
0.0
 40
20.0
  0
LINE
  5
4D5E
330
18
100
AcDbEntity
  8
1
100
AcDbLine
 10
751.0
 20
4361.0
 30
0.0
 11
700.0
 21
4361.0
 31
0.0
  0
LINE
  5
4D5F
330
18
100
AcDbEntity
  8
CENTER
100
AcDbLine
 10
754.9999787173187
 20
4325.000041572537
 30
0.0
 11
704.9999787173187
 21
4325.000041572537
 31
0.0
  0
ARC
  5
4D60
330
18
100
AcDbEntity
  8
1
100
AcDbCircle
 10
757.0
 20
4352.000000000001
 30
0.0
 40
6.0
100
AcDbArc
 50
180.0
 51
270.0
  0
LINE
  5
4D61
330
18
100
AcDbEntity
  8
1
100
AcDbLine
 10
751.0
 20
4352.000000000001
 30
0.0
 11
751.0
 21
4361.0
 31
0.0
  0
LINE
  5
4D62
330
18
100
AcDbEntity
  8
1
100
AcDbLine
 10
729.9999787173187
 20
4338.856431572536
 30
0.0
 11
741.999968717319
 21
4331.928231572536
 31
0.0
  0
LINE
  5
4D63
330
18
100
AcDbEntity
  8
1
100
AcDbLine
 10
717.9999887173189
 20
4331.928241572537
 30
0.0
 11
729.9999787173187
 21
4338.856431572536
 31
0.0
  0
LINE
  5
4D64
330
18
100
AcDbEntity
  8
1
100
AcDbLine
 10
729.9999787173187
 20
4311.143638572537
 30
0.0
 11
741.999968717319
 21
4318.071829572537
 31
0.0
  0
LINE
  5
4D65
330
18
100
AcDbEntity
  8
1
100
AcDbLine
 10
729.9999787173187
 20
4311.143638572537
 30
0.0
 11
717.9999887173189
 21
4318.071829572537
 31
0.0
  0
LINE
  5
4D66
330
18
100
AcDbEntity
  8
1
100
AcDbLine
 10
772.0
 20
4355.000000000001
 30
0.0
 11
772.0
 21
4295.0
 31
0.0
  0
LINE
  5
4D67
330
18
100
AcDbEntity
  8
1
100
AcDbLine
 10
766.0
 20
4295.0
 30
0.0
 11
766.0
 21
4346.0
 31
0.0
  0
LINE
  5
4D68
330
18
100
AcDbEntity
  8
1
100
AcDbLine
 10
766.0
 20
4346.0
 30
0.0
 11
766.0
 21
4355.000000000001
 31
0.0
  0
ARC
  5
4D69
330
18
100
AcDbEntity
  8
1
100
AcDbCircle
 10
760.0
 20
4355.000000000001
 30
0.0
 40
6.0
100
AcDbArc
 50
360.0
 51
90.0
  0
ARC
  5
4D6A
330
18
100
AcDbEntity
  8
1
100
AcDbCircle
 10
760.0
 20
4355.000000000001
 30
0.0
 40
12.0
100
AcDbArc
 50
360.0
 51
90.0
  0
LINE
  5
4D6B
330
18
100
AcDbEntity
  8
0
100
AcDbLine
 10
772.0
 20
4859.999999999999
 30
0.0
 11
1043.0
 21
4859.999999999999
 31
0.0
  0
LINE
  5
4D6C
330
18
100
AcDbEntity
  8
0
100
AcDbLine
 10
700.0
 20
4367.0
 30
0.0
 11
700.0
 21
4787.999999999999
 31
0.0
  0
LINE
  5
4D6E
330
18
100
AcDbEntity
  8
0
100
AcDbLine
 10
1043.0
 20
4295.0
 30
0.0
 11
772.0
 21
4295.0
 31
0.0
  0
LINE
  5
4DCC
330
18
100
AcDbEntity
  8
0
100
AcDbLine
 10
699.0000000000005
 20
3296.000000000002
 30
0.0
 11
699.0000000000005
 21
3370.000000000001
 31
0.0
  0
LINE
  5
4DCD
330
18
100
AcDbEntity
  8
0
100
AcDbLine
 10
699.0000000000005
 20
3267.000000000002
 30
0.0
 11
699.0000000000005
 21
3241.000000000002
 31
0.0
  0
LINE
  5
4DCE
330
18
100
AcDbEntity
  8
1
 62
     4
100
AcDbLine
 10
715.1435935394495
 20
3308.200000000001
 30
0.0
 11
715.1435935394495
 21
3317.700000000001
 31
0.0
  0
LINE
  5
4DCF
330
18
100
AcDbEntity
  8
1
 62
     4
100
AcDbLine
 10
722.0717967697257
 20
3308.200000000001
 30
0.0
 11
722.0717967697257
 21
3317.700000000001
 31
0.0
  0
LINE
  5
4DD0
330
18
100
AcDbEntity
  8
1
 62
     4
100
AcDbLine
 10
735.9282032302756
 20
3308.200000000001
 30
0.0
 11
735.9282032302765
 21
3317.700000000001
 31
0.0
  0
LINE
  5
4DD1
330
18
100
AcDbEntity
  8
1
 62
     4
100
AcDbLine
 10
742.8564064605518
 20
3317.700000000001
 30
0.0
 11
742.8564064605518
 21
3308.200000000001
 31
0.0
  0
LINE
  5
4DD2
330
18
100
AcDbEntity
  8
CENTER
100
AcDbLine
 10
729.0000000000007
 20
3243.554392542625
 30
0.0
 11
729.0000000000007
 21
3338.126013589413
 31
0.0
  0
LINE
  5
4DD3
330
18
100
AcDbEntity
  8
SCALE
100
AcDbLine
 10
765.0000000000006
 20
3308.000000000002
 30
0.0
 11
765.0000000000006
 21
3370.000000000001
 31
0.0
1001
ACAD
1000
ASC_BOUNDS
1002
{
1070
    19
1005
0
1002
}
  0
LINE
  5
4DD4
330
18
100
AcDbEntity
  8
SCALE
100
AcDbLine
 10
771.0000000000007
 20
3307.000000000002
 30
0.0
 11
771.0000000000007
 21
3370.000000000001
 31
0.0
  0
ARC
  5
4DD5
330
18
100
AcDbEntity
  8
1
 62
     4
100
AcDbCircle
 10
739.3923048454137
 20
3317.735714285716
 30
0.0
 40
3.464285714285713
100
AcDbArc
 50
359.4093113971906
 51
180.5906886028094
  0
ARC
  5
4DD6
330
18
100
AcDbEntity
  8
1
 62
     4
100
AcDbCircle
 10
718.6076951545876
 20
3317.735714285716
 30
0.0
 40
3.464285714285713
100
AcDbArc
 50
359.4093113971906
 51
180.5906886028094
  0
LINE
  5
4DD7
330
18
100
AcDbEntity
  8
0
100
AcDbLine
 10
771.0000000000007
 20
3267.000000000002
 30
0.0
 11
1043.0
 21
3267.000000000003
 31
0.0
  0
LINE
  5
4DD8
330
18
100
AcDbEntity
  8
0
100
AcDbLine
 10
754.4000000000003
 20
3237.000000000002
 30
0.0
 11
1043.0
 21
3237.000000000002
 31
0.0
  0
LINE
  5
4DD9
330
18
100
AcDbEntity
  8
SCALE
100
AcDbLine
 10
713.9998476802449
 20
3291.500000000002
 30
0.0
 11
743.9998476802449
 21
3291.500000000002
 31
0.0
  0
LINE
  5
4DDA
330
18
100
AcDbEntity
  8
1
100
AcDbLine
 10
742.8564064605518
 20
3308.200000000001
 30
0.0
 11
715.1435935394495
 21
3308.200000000001
 31
0.0
  0
LINE
  5
4DDB
330
18
100
AcDbEntity
  8
SCALE
100
AcDbLine
 10
743.9998476802449
 20
3294.000000000002
 30
0.0
 11
742.4998476802449
 21
3294.000000000002
 31
0.0
  0
LINE
  5
4DDC
330
18
100
AcDbEntity
  8
SCALE
100
AcDbLine
 10
742.4998476802449
 20
3290.000000000002
 30
0.0
 11
743.9998476802449
 21
3291.500000000002
 31
0.0
  0
ARC
  5
4DDD
330
18
100
AcDbEntity
  8
SCALE
100
AcDbCircle
 10
739.4114421931671
 20
3268.928663193169
 30
0.0
 40
5.090450299999999
100
AcDbArc
 50
47.11669000000006
 51
132.88337
  0
ARC
  5
4DDE
330
18
100
AcDbEntity
  8
SCALE
100
AcDbCircle
 10
739.4114421931671
 20
3269.109591193169
 30
0.0
 40
5.090450299999999
100
AcDbArc
 50
227.1166399999999
 51
312.883317
  0
ARC
  5
4DDF
330
18
100
AcDbEntity
  8
SCALE
100
AcDbCircle
 10
739.3923048454138
 20
3251.464285714288
 30
0.0
 40
3.464285714285714
100
AcDbArc
 50
179.4093113971904
 51
0.5906886028094976
  0
LINE
  5
4DE0
330
18
100
AcDbEntity
  8
0
100
AcDbLine
 10
765.0000000000008
 20
3237.000000000002
 30
0.0
 11
703.0000000000005
 21
3237.000000000002
 31
0.0
  0
LINE
  5
4DE1
330
18
100
AcDbEntity
  8
SCALE
100
AcDbLine
 10
760.0000000000006
 20
3296.000000000002
 30
0.0
 11
699.0000000000005
 21
3296.000000000002
 31
0.0
  0
LINE
  5
4DE2
330
18
100
AcDbEntity
  8
SCALE
100
AcDbLine
 10
759.0000000000006
 20
3302.000000000001
 30
0.0
 11
699.0000000000005
 21
3302.000000000001
 31
0.0
  0
LINE
  5
4DE3
330
18
100
AcDbEntity
  8
SCALE
100
AcDbLine
 10
765.0000000000005
 20
3258.000000000002
 30
0.0
 11
699.0000000000005
 21
3258.000000000002
 31
0.0
  0
LINE
  5
4DE4
330
18
100
AcDbEntity
  8
SCALE
100
AcDbLine
 10
765.0000000000005
 20
3264.000000000002
 30
0.0
 11
699.0000000000005
 21
3264.000000000002
 31
0.0
  0
LINE
  5
4DE5
330
18
100
AcDbEntity
  8
SCALE
100
AcDbLine
 10
749.0000000000007
 20
3305.000000000001
 30
0.0
 11
708.9998476802449
 21
3305.000000000001
 31
0.0
  0
LINE
  5
4DE6
330
18
100
AcDbEntity
  8
SCALE
100
AcDbLine
 10
749.0000000000007
 20
3308.200000000001
 30
0.0
 11
708.9998476802449
 21
3308.200000000001
 31
0.0
  0
LINE
  5
4DE7
330
18
100
AcDbEntity
  8
SCALE
100
AcDbLine
 10
748.9998476802449
 20
3302.000000000001
 30
0.0
 11
742.4998476802449
 21
3302.000000000001
 31
0.0
  0
LINE
  5
4DE8
330
18
100
AcDbEntity
  8
SCALE
100
AcDbLine
 10
715.1435935394496
 20
3251.500000000002
 30
0.0
 11
715.1435935394496
 21
3258.000000000002
 31
0.0
  0
LINE
  5
4DE9
330
18
100
AcDbEntity
  8
SCALE
100
AcDbLine
 10
722.071796769725
 20
3258.000000000002
 30
0.0
 11
722.071796769725
 21
3251.500000000002
 31
0.0
  0
LINE
  5
4DEA
330
18
100
AcDbEntity
  8
SCALE
100
AcDbLine
 10
735.9282032302761
 20
3258.000000000002
 30
0.0
 11
735.9282032302761
 21
3251.500000000002
 31
0.0
  0
LINE
  5
4DEB
330
18
100
AcDbEntity
  8
CENTER
100
AcDbLine
 10
729.0000000000007
 20
3309.953224621671
 30
0.0
 11
729.0000000000007
 21
3243.438259073012
 31
0.0
  0
ARC
  5
4DEC
330
18
100
AcDbEntity
  8
0
100
AcDbCircle
 10
703.0000000000005
 20
3241.000000000002
 30
0.0
 40
4.0
100
AcDbArc
 50
180.0
 51
269.9999999999999
  0
LINE
  5
4DED
330
18
100
AcDbEntity
  8
SCALE
100
AcDbLine
 10
739.3923048454138
 20
3248.000000000002
 30
0.0
 11
718.6076951545873
 21
3248.000000000002
 31
0.0
  0
ARC
  5
4DEE
330
18
100
AcDbEntity
  8
SCALE
100
AcDbCircle
 10
718.6076951545873
 20
3251.464285714288
 30
0.0
 40
3.464285714285714
100
AcDbArc
 50
179.4093113971904
 51
0.5906886028094976
  0
ARC
  5
4DEF
330
18
100
AcDbEntity
  8
SCALE
100
AcDbCircle
 10
729.0000000000006
 20
3256.607142857145
 30
0.0
 40
8.607142857142852
100
AcDbArc
 50
216.3958791980992
 51
323.6041208019007
  0
LINE
  5
4DF0
330
18
100
AcDbEntity
  8
SCALE
100
AcDbLine
 10
715.1627481931671
 20
3267.000000000002
 30
0.0
 11
699.0000000000005
 21
3267.000000000002
 31
0.0
  0
ARC
  5
4DF1
330
18
100
AcDbEntity
  8
SCALE
100
AcDbCircle
 10
718.6268371931671
 20
3268.928663193169
 30
0.0
 40
5.090450299999999
100
AcDbArc
 50
47.11664000000006
 51
132.88332
  0
ARC
  5
4DF2
330
18
100
AcDbEntity
  8
SCALE
100
AcDbCircle
 10
718.6268371931671
 20
3269.109591193169
 30
0.0
 40
5.090450299999999
100
AcDbArc
 50
227.11669
 51
312.8833619999999
  0
LINE
  5
4DF3
330
18
100
AcDbEntity
  8
SCALE
100
AcDbLine
 10
739.4114421931671
 20
3274.019112193168
 30
0.0
 11
718.6268371931671
 21
3274.019112193168
 31
0.0
  0
LINE
  5
4DF4
330
18
100
AcDbEntity
  8
SCALE
100
AcDbLine
 10
742.4998476802449
 20
3290.000000000002
 30
0.0
 11
715.4998476802449
 21
3290.000000000002
 31
0.0
  0
LINE
  5
4DF5
330
18
100
AcDbEntity
  8
SCALE
100
AcDbLine
 10
742.4998476802449
 20
3294.000000000002
 30
0.0
 11
715.4998476802449
 21
3294.000000000002
 31
0.0
  0
LINE
  5
4DF6
330
18
100
AcDbEntity
  8
SCALE
100
AcDbLine
 10
708.9998476802449
 20
3305.000000000001
 30
0.0
 11
708.9998476802449
 21
3302.000000000001
 31
0.0
  0
LINE
  5
4DF7
330
18
100
AcDbEntity
  8
SCALE
100
AcDbLine
 10
713.9998476802449
 20
3294.000000000002
 30
0.0
 11
713.9998476802449
 21
3291.500000000002
 31
0.0
  0
LINE
  5
4DF8
330
18
100
AcDbEntity
  8
SCALE
100
AcDbLine
 10
715.4998476802449
 20
3294.000000000002
 30
0.0
 11
713.9998476802449
 21
3294.000000000002
 31
0.0
  0
LINE
  5
4DF9
330
18
100
AcDbEntity
  8
SCALE
100
AcDbLine
 10
715.4998476802449
 20
3290.000000000002
 30
0.0
 11
713.9998476802449
 21
3291.500000000002
 31
0.0
  0
LINE
  5
4DFA
330
18
100
AcDbEntity
  8
SCALE
100
AcDbLine
 10
715.4998476802449
 20
3296.000000000002
 30
0.0
 11
715.4998476802449
 21
3294.000000000002
 31
0.0
  0
LINE
  5
4DFB
330
18
100
AcDbEntity
  8
SCALE
100
AcDbLine
 10
715.1627481931671
 20
3272.658645193168
 30
0.0
 11
715.1627481931671
 21
3265.379609193169
 31
0.0
  0
LINE
  5
4DFC
330
18
100
AcDbEntity
  8
SCALE
100
AcDbLine
 10
715.4998476802449
 20
3302.000000000001
 30
0.0
 11
708.9998476802449
 21
3302.000000000001
 31
0.0
  0
LINE
  5
4DFD
330
18
100
AcDbEntity
  8
SCALE
100
AcDbLine
 10
709.0000000000006
 20
3305.000000000001
 30
0.0
 11
709.0000000000006
 21
3308.200000000001
 31
0.0
  0
LINE
  5
4DFE
330
18
100
AcDbEntity
  8
SCALE
100
AcDbLine
 10
722.0909331931672
 20
3272.658641688111
 30
0.0
 11
722.0909331931672
 21
3265.379602193169
 31
0.0
  0
LINE
  5
4DFF
330
18
100
AcDbEntity
  8
SCALE
100
AcDbLine
 10
722.0909331931672
 20
3290.000000000002
 30
0.0
 11
722.0909331931672
 21
3274.019112193168
 31
0.0
  0
LINE
  5
4E00
330
18
100
AcDbEntity
  8
SCALE
100
AcDbLine
 10
742.4998476802449
 20
3296.000000000002
 30
0.0
 11
742.4998476802449
 21
3294.000000000002
 31
0.0
  0
LINE
  5
4E01
330
18
100
AcDbEntity
  8
SCALE
100
AcDbLine
 10
735.9473321931671
 20
3272.658649449328
 30
0.0
 11
735.9473321931671
 21
3265.379602193169
 31
0.0
  0
LINE
  5
4E02
330
18
100
AcDbEntity
  8
SCALE
100
AcDbLine
 10
735.9473321931671
 20
3290.000000000002
 30
0.0
 11
735.9473321931671
 21
3274.019112193168
 31
0.0
  0
ARC
  5
4E03
330
18
100
AcDbEntity
  8
SCALE
100
AcDbCircle
 10
729.0191421931671
 20
3282.340315193168
 30
0.0
 40
18.32118299999999
100
AcDbArc
 50
247.7806799999999
 51
292.2193
  0
ARC
  5
4E04
330
18
100
AcDbEntity
  8
SCALE
100
AcDbCircle
 10
729.0191421931671
 20
3255.697932193169
 30
0.0
 40
18.32118299999999
100
AcDbArc
 50
67.78070999999998
 51
112.2193299999999
  0
LINE
  5
4E05
330
18
100
AcDbEntity
  8
CENTER
100
AcDbLine
 10
824.9999999999998
 20
3274.000000000002
 30
0.0
 11
824.9999999999998
 21
3230.000000000002
 31
0.0
  0
LINE
  5
4E06
330
18
100
AcDbEntity
  8
SCALE
100
AcDbLine
 10
771.0000000000006
 20
3267.000000000002
 30
0.0
 11
771.0000000000006
 21
3237.000000000002
 31
0.0
  0
LINE
  5
4E07
330
18
100
AcDbEntity
  8
SCALE
100
AcDbLine
 10
765.0000000000005
 20
3267.000000000002
 30
0.0
 11
765.0000000000008
 21
3237.000000000002
 31
0.0
1001
ACAD
1000
ASC_BOUNDS
1002
{
1070
    19
1005
0
1002
}
  0
LINE
  5
4E08
330
18
100
AcDbEntity
  8
SCALE
100
AcDbLine
 10
742.8564064605516
 20
3258.000000000002
 30
0.0
 11
742.8564064605516
 21
3251.500000000002
 31
0.0
  0
LINE
  5
4E09
330
18
100
AcDbEntity
  8
1
100
AcDbLine
 10
759.0000000000002
 20
3237.000000000002
 30
0.0
 11
765.0000000000002
 21
3237.000000000002
 31
0.0
  0
LINE
  5
4E0A
330
18
100
AcDbEntity
  8
SCALE
100
AcDbLine
 10
771.0000000000006
 20
3237.000000000002
 30
0.0
 11
765.0000000000008
 21
3237.000000000002
 31
0.0
  0
ARC
  5
4E0B
330
18
100
AcDbEntity
  8
SCALE
100
AcDbCircle
 10
759.0000000000006
 20
3308.000000000002
 30
0.0
 40
6.0
100
AcDbArc
 50
270.0
 51
359.9999999999997
1001
ACAD
1000
ASC_BOUNDS
1002
{
1070
    19
1005
0
1002
}
  0
ARC
  5
4E0C
330
18
100
AcDbEntity
  8
SCALE
100
AcDbCircle
 10
760.0000000000006
 20
3307.000000000002
 30
0.0
 40
11.0
100
AcDbArc
 50
270.0
 51
0.0000000000000509
  0
LINE
  5
4E0D
330
18
100
AcDbEntity
  8
SCALE
100
AcDbLine
 10
748.9998476802449
 20
3305.000000000001
 30
0.0
 11
748.9998476802449
 21
3302.000000000001
 31
0.0
  0
LINE
  5
4E0E
330
18
100
AcDbEntity
  8
SCALE
100
AcDbLine
 10
749.0000000000007
 20
3305.000000000001
 30
0.0
 11
749.0000000000007
 21
3308.200000000001
 31
0.0
  0
LINE
  5
4E0F
330
18
100
AcDbEntity
  8
SCALE
100
AcDbLine
 10
765.0000000000005
 20
3267.000000000002
 30
0.0
 11
771.0000000000006
 21
3267.000000000002
 31
0.0
  0
LINE
  5
4E10
330
18
100
AcDbEntity
  8
SCALE
100
AcDbLine
 10
743.9998476802449
 20
3294.000000000002
 30
0.0
 11
743.9998476802449
 21
3291.500000000002
 31
0.0
  0
LINE
  5
4E11
330
18
100
AcDbEntity
  8
SCALE
100
AcDbLine
 10
742.8755221931671
 20
3272.658651193169
 30
0.0
 11
742.8755221931671
 21
3265.379602193169
 31
0.0
  0
LINE
  5
4E12
330
18
100
AcDbEntity
  8
SCALE
100
AcDbLine
 10
765.0000000000005
 20
3267.000000000002
 30
0.0
 11
742.8755221931671
 21
3267.000000000002
 31
0.0
  0
LINE
  5
4E13
330
18
100
AcDbEntity
  8
0
100
AcDbLine
 10
771.0000000000007
 20
3340.000000000002
 30
0.0
 11
1043.0
 21
3340.000000000003
 31
0.0
  0
LINE
  5
4E14
330
18
100
AcDbEntity
  8
0
100
AcDbLine
 10
1043.0
 20
3370.000000000001
 30
0.0
 11
771.0000000000007
 21
3370.000000000002
 31
0.0
  0
LINE
  5
4E15
330
18
100
AcDbEntity
  8
0
100
AcDbLine
 10
765.0000000000006
 20
3370.000000000001
 30
0.0
 11
699.0000000000005
 21
3370.000000000001
 31
0.0
  0
LINE
  5
4E16
330
18
100
AcDbEntity
  8
1
 62
     4
100
AcDbLine
 10
719.0000425725568
 20
3322.700000000001
 30
0.0
 11
739.000040572517
 21
3322.700000000001
 31
0.0
  0
LINE
  5
4E17
330
18
100
AcDbEntity
  8
1
 62
     4
100
AcDbLine
 10
718.6076951545876
 20
3321.200000000001
 30
0.0
 11
739.3923048454137
 21
3321.200000000001
 31
0.0
  0
ARC
  5
4E18
330
18
100
AcDbEntity
  8
1
100
AcDbCircle
 10
719.0000425725568
 20
3321.200000000001
 30
0.0
 40
1.5
100
AcDbArc
 50
90.0
 51
180.0
  0
LINE
  5
4E19
330
18
100
AcDbEntity
  8
1
100
AcDbLine
 10
717.5000425725568
 20
3321.200000000001
 30
0.0
 11
717.5000425725568
 21
3321.018149550535
 31
0.0
  0
LINE
  5
4E1A
330
18
100
AcDbEntity
  8
SCALE
100
AcDbLine
 10
723.5909331931671
 20
3323.000000000002
 30
0.0
 11
723.2909331931672
 21
3322.700000000001
 31
0.0
  0
LINE
  5
4E1B
330
18
100
AcDbEntity
  8
SCALE
100
AcDbLine
 10
734.4473321931671
 20
3323.000000000002
 30
0.0
 11
734.747332193167
 21
3322.700000000001
 31
0.0
  0
LINE
  5
4E1C
330
18
100
AcDbEntity
  8
1
100
AcDbLine
 10
740.500040572517
 20
3321.200000000001
 30
0.0
 11
740.500040572517
 21
3321.018121492189
 31
0.0
  0
ARC
  5
4E1D
330
18
100
AcDbEntity
  8
1
100
AcDbCircle
 10
739.000040572517
 20
3321.200000000001
 30
0.0
 40
1.5
100
AcDbArc
 50
0.0
 51
90.0
  0
LINE
  5
4E1E
330
18
100
AcDbEntity
  8
SCALE
100
AcDbLine
 10
734.4473321931671
 20
3323.000000000002
 30
0.0
 11
723.5909331931671
 21
3323.000000000002
 31
0.0
  0
ARC
  5
4E1F
330
18
100
AcDbEntity
  8
1
 62
     4
100
AcDbCircle
 10
729.0000000000011
 20
3312.592857142859
 30
0.0
 40
8.607142857142854
100
AcDbArc
 50
36.39587919809928
 51
143.6041208019006
  0
LINE
  5
4E20
330
18
100
AcDbEntity
  8
CENTER
100
AcDbLine
 10
788.0
 20
3377.000000000002
 30
0.0
 11
788.0
 21
3333.000000000002
 31
0.0
  0
LINE
  5
4E21
330
18
100
AcDbEntity
  8
0
100
AcDbLine
 10
771.0000000000007
 20
3370.000000000001
 30
0.0
 11
765.0000000000006
 21
3370.000000000001
 31
0.0
  0
CIRCLE
  5
510A
330
18
100
AcDbEntity
  8
SCALE
100
AcDbCircle
 10
762.5000387828732
 20
2644.998718046682
 30
0.0
 40
4.0
  0
CIRCLE
  5
510B
330
18
100
AcDbEntity
  8
SCALE
100
AcDbCircle
 10
980.4999612171268
 20
2644.998718046682
 30
0.0
 40
4.0
  0
CIRCLE
  5
510C
330
18
100
AcDbEntity
  8
SCALE
100
AcDbCircle
 10
980.4999612171268
 20
2392.498745654383
 30
0.0
 40
4.0
  0
CIRCLE
  5
510D
330
18
100
AcDbEntity
  8
SCALE
100
AcDbCircle
 10
762.5000387828732
 20
2392.498745654383
 30
0.0
 40
4.0
  0
LINE
  5
512E
330
18
100
AcDbEntity
  8
1
100
AcDbLine
 10
700.0
 20
2652.498731850533
 30
0.0
 11
707.5
 21
2659.998731850532
 31
0.0
  0
LINE
  5
512F
330
18
100
AcDbEntity
  8
1
100
AcDbLine
 10
736.0
 20
2659.998731850532
 30
0.0
 11
707.5
 21
2659.998731850532
 31
0.0
  0
LINE
  5
5130
330
18
100
AcDbEntity
  8
1
100
AcDbLine
 10
700.0
 20
2623.998731850532
 30
0.0
 11
700.0
 21
2652.498731850533
 31
0.0
  0
LINE
  5
5131
330
18
100
AcDbEntity
  8
1
100
AcDbLine
 10
730.0
 20
2626.998731850533
 30
0.0
 11
725.4999999999999
 21
2626.998731850533
 31
0.0
  0
LINE
  5
5132
330
18
100
AcDbEntity
  8
1
100
AcDbLine
 10
730.0
 20
2623.998731850532
 30
0.0
 11
700.0
 21
2623.998731850532
 31
0.0
  0
LINE
  5
5133
330
18
100
AcDbEntity
  8
1
100
AcDbLine
 10
733.0
 20
2634.498731850532
 30
0.0
 11
728.5
 21
2634.498731850532
 31
0.0
  0
CIRCLE
  5
5134
330
18
100
AcDbEntity
  8
1
100
AcDbCircle
 10
714.9999893586594
 20
2644.998711064264
 30
0.0
 40
4.0
  0
CIRCLE
  5
5135
330
18
100
AcDbEntity
  8
1
100
AcDbCircle
 10
714.9999893586594
 20
2644.998711064264
 30
0.0
 40
3.499999899999999
  0
CIRCLE
  5
5136
330
18
100
AcDbEntity
  8
1
100
AcDbCircle
 10
714.9999893586594
 20
2644.998711064264
 30
0.0
 40
5.7499995
  0
LINE
  5
5137
330
18
100
AcDbEntity
  8
1
100
AcDbLine
 10
720.9999843586595
 20
2641.534611064264
 30
0.0
 11
720.9999843586595
 21
2648.462817064265
 31
0.0
  0
LINE
  5
5138
330
18
100
AcDbEntity
  8
1
100
AcDbLine
 10
708.9999943586595
 20
2641.534611064264
 30
0.0
 11
708.9999943586595
 21
2648.462817064265
 31
0.0
  0
LINE
  5
5139
330
18
100
AcDbEntity
  8
CENTER
100
AcDbLine
 10
714.9999893586594
 20
2657.498711064264
 30
0.0
 11
714.9999893586594
 21
2632.498711064264
 31
0.0
  0
LINE
  5
513A
330
18
100
AcDbEntity
  8
CENTER
100
AcDbLine
 10
727.4999893586594
 20
2644.998711064264
 30
0.0
 11
702.4999893586594
 21
2644.998711064264
 31
0.0
  0
LINE
  5
513B
330
18
100
AcDbEntity
  8
1
100
AcDbLine
 10
725.4999999999999
 20
2626.998731850533
 30
0.0
 11
700.0
 21
2626.998731850533
 31
0.0
  0
LINE
  5
513C
330
18
100
AcDbEntity
  8
1
100
AcDbLine
 10
714.9999893586594
 20
2638.070516064265
 30
0.0
 11
720.9999843586595
 21
2641.534616064264
 31
0.0
  0
LINE
  5
513D
330
18
100
AcDbEntity
  8
1
100
AcDbLine
 10
725.4999999999999
 20
2631.498731850532
 30
0.0
 11
725.4999999999999
 21
2626.998731850533
 31
0.0
  0
ARC
  5
513E
330
18
100
AcDbEntity
  8
1
100
AcDbCircle
 10
728.5
 20
2631.498731850532
 30
0.0
 40
3.0
100
AcDbArc
 50
89.99999999999991
 51
179.9999999999999
  0
LINE
  5
513F
330
18
100
AcDbEntity
  8
1
100
AcDbLine
 10
708.9999943586595
 20
2641.534611064264
 30
0.0
 11
714.9999893586594
 21
2638.070516064265
 31
0.0
  0
LINE
  5
5140
330
18
100
AcDbEntity
  8
1
100
AcDbLine
 10
714.9999893586594
 20
2651.926912564264
 30
0.0
 11
720.9999843586595
 21
2648.462817064265
 31
0.0
  0
LINE
  5
5141
330
18
100
AcDbEntity
  8
1
100
AcDbLine
 10
714.9999893586594
 20
2651.926912564264
 30
0.0
 11
708.9999943586595
 21
2648.462817064265
 31
0.0
  0
LINE
  5
5142
330
18
100
AcDbEntity
  8
1
100
AcDbLine
 10
733.0
 20
2659.998731850532
 30
0.0
 11
733.0
 21
2634.498731850532
 31
0.0
  0
LINE
  5
5143
330
18
100
AcDbEntity
  8
1
100
AcDbLine
 10
736.0
 20
2629.998731850532
 30
0.0
 11
736.0
 21
2659.998731850532
 31
0.0
  0
LINE
  5
5144
330
18
100
AcDbEntity
  8
1
100
AcDbLine
 10
733.0
 20
2634.498731850532
 30
0.0
 11
733.0
 21
2629.998731850532
 31
0.0
  0
ARC
  5
5145
330
18
100
AcDbEntity
  8
1
100
AcDbCircle
 10
730.0
 20
2629.998731850532
 30
0.0
 40
6.0
100
AcDbArc
 50
269.9999999999997
 51
0.0
  0
ARC
  5
5146
330
18
100
AcDbEntity
  8
1
100
AcDbCircle
 10
730.0
 20
2629.998731850532
 30
0.0
 40
3.0
100
AcDbArc
 50
270.0
 51
359.9999999999998
  0
LINE
  5
5147
330
18
100
AcDbEntity
  8
1
100
AcDbLine
 10
1043.0
 20
2652.498731850533
 30
0.0
 11
1035.5
 21
2659.998731850532
 31
0.0
  0
LINE
  5
5148
330
18
100
AcDbEntity
  8
1
100
AcDbLine
 10
1007.0
 20
2659.998731850532
 30
0.0
 11
1035.5
 21
2659.998731850532
 31
0.0
  0
LINE
  5
5149
330
18
100
AcDbEntity
  8
1
100
AcDbLine
 10
1043.0
 20
2623.998731850532
 30
0.0
 11
1043.0
 21
2652.498731850533
 31
0.0
  0
LINE
  5
514A
330
18
100
AcDbEntity
  8
1
100
AcDbLine
 10
1013.0
 20
2626.998731850533
 30
0.0
 11
1017.5
 21
2626.998731850533
 31
0.0
  0
LINE
  5
514B
330
18
100
AcDbEntity
  8
1
100
AcDbLine
 10
1013.0
 20
2623.998731850532
 30
0.0
 11
1043.0
 21
2623.998731850532
 31
0.0
  0
LINE
  5
514C
330
18
100
AcDbEntity
  8
1
100
AcDbLine
 10
1010.0
 20
2634.498731850532
 30
0.0
 11
1014.499999999999
 21
2634.498731850532
 31
0.0
  0
CIRCLE
  5
514D
330
18
100
AcDbEntity
  8
1
100
AcDbCircle
 10
1028.00001064134
 20
2644.998711064264
 30
0.0
 40
4.0
  0
CIRCLE
  5
514E
330
18
100
AcDbEntity
  8
1
100
AcDbCircle
 10
1028.00001064134
 20
2644.998711064264
 30
0.0
 40
3.499999899999999
  0
CIRCLE
  5
514F
330
18
100
AcDbEntity
  8
1
100
AcDbCircle
 10
1028.00001064134
 20
2644.998711064264
 30
0.0
 40
5.7499995
  0
LINE
  5
5150
330
18
100
AcDbEntity
  8
1
100
AcDbLine
 10
1022.00001564134
 20
2641.534611064264
 30
0.0
 11
1022.00001564134
 21
2648.462817064265
 31
0.0
  0
LINE
  5
5151
330
18
100
AcDbEntity
  8
1
100
AcDbLine
 10
1034.00000564134
 20
2641.534611064264
 30
0.0
 11
1034.00000564134
 21
2648.462817064265
 31
0.0
  0
LINE
  5
5152
330
18
100
AcDbEntity
  8
CENTER
100
AcDbLine
 10
1028.00001064134
 20
2657.498711064264
 30
0.0
 11
1028.00001064134
 21
2632.498711064264
 31
0.0
  0
LINE
  5
5153
330
18
100
AcDbEntity
  8
CENTER
100
AcDbLine
 10
1015.50001064134
 20
2644.998711064264
 30
0.0
 11
1040.50001064134
 21
2644.998711064264
 31
0.0
  0
LINE
  5
5154
330
18
100
AcDbEntity
  8
1
100
AcDbLine
 10
1017.5
 20
2626.998731850533
 30
0.0
 11
1043.0
 21
2626.998731850533
 31
0.0
  0
LINE
  5
5155
330
18
100
AcDbEntity
  8
1
100
AcDbLine
 10
1028.00001064134
 20
2638.070516064265
 30
0.0
 11
1022.00001564134
 21
2641.534616064264
 31
0.0
  0
LINE
  5
5156
330
18
100
AcDbEntity
  8
1
100
AcDbLine
 10
1017.5
 20
2631.498731850532
 30
0.0
 11
1017.5
 21
2626.998731850533
 31
0.0
  0
ARC
  5
5157
330
18
100
AcDbEntity
  8
1
100
AcDbCircle
 10
1014.499999999999
 20
2631.498731850532
 30
0.0
 40
3.0
100
AcDbArc
 50
0.0
 51
90.0
  0
LINE
  5
5158
330
18
100
AcDbEntity
  8
1
100
AcDbLine
 10
1034.00000564134
 20
2641.534611064264
 30
0.0
 11
1028.00001064134
 21
2638.070516064265
 31
0.0
  0
LINE
  5
5159
330
18
100
AcDbEntity
  8
1
100
AcDbLine
 10
1028.00001064134
 20
2651.926912564264
 30
0.0
 11
1022.00001564134
 21
2648.462817064265
 31
0.0
  0
LINE
  5
515A
330
18
100
AcDbEntity
  8
1
100
AcDbLine
 10
1028.00001064134
 20
2651.926912564264
 30
0.0
 11
1034.00000564134
 21
2648.462817064265
 31
0.0
  0
LINE
  5
515B
330
18
100
AcDbEntity
  8
1
100
AcDbLine
 10
1010.0
 20
2659.998731850532
 30
0.0
 11
1010.0
 21
2634.498731850532
 31
0.0
  0
LINE
  5
515C
330
18
100
AcDbEntity
  8
1
100
AcDbLine
 10
1007.0
 20
2629.998731850532
 30
0.0
 11
1007.0
 21
2659.998731850532
 31
0.0
  0
LINE
  5
515D
330
18
100
AcDbEntity
  8
1
100
AcDbLine
 10
1010.0
 20
2634.498731850532
 30
0.0
 11
1010.0
 21
2629.998731850532
 31
0.0
  0
ARC
  5
515E
330
18
100
AcDbEntity
  8
1
100
AcDbCircle
 10
1013.0
 20
2629.998731850532
 30
0.0
 40
6.0
100
AcDbArc
 50
180.0
 51
270.0
  0
ARC
  5
515F
330
18
100
AcDbEntity
  8
1
100
AcDbCircle
 10
1013.0
 20
2629.998731850532
 30
0.0
 40
3.0
100
AcDbArc
 50
180.0
 51
270.0
  0
LINE
  5
5160
330
18
100
AcDbEntity
  8
1
100
AcDbLine
 10
1043.0
 20
2384.998731850533
 30
0.0
 11
1035.5
 21
2377.498731850532
 31
0.0
  0
LINE
  5
5161
330
18
100
AcDbEntity
  8
1
100
AcDbLine
 10
1007.0
 20
2377.498731850532
 30
0.0
 11
1035.5
 21
2377.498731850532
 31
0.0
  0
LINE
  5
5162
330
18
100
AcDbEntity
  8
1
100
AcDbLine
 10
1043.0
 20
2413.498731850532
 30
0.0
 11
1043.0
 21
2384.998731850533
 31
0.0
  0
LINE
  5
5163
330
18
100
AcDbEntity
  8
1
100
AcDbLine
 10
1013.0
 20
2410.498731850532
 30
0.0
 11
1017.5
 21
2410.498731850532
 31
0.0
  0
LINE
  5
5164
330
18
100
AcDbEntity
  8
1
100
AcDbLine
 10
1013.0
 20
2413.498731850532
 30
0.0
 11
1043.0
 21
2413.498731850532
 31
0.0
  0
LINE
  5
5165
330
18
100
AcDbEntity
  8
1
100
AcDbLine
 10
1010.0
 20
2402.998731850532
 30
0.0
 11
1014.499999999999
 21
2402.998731850532
 31
0.0
  0
CIRCLE
  5
5166
330
18
100
AcDbEntity
  8
1
100
AcDbCircle
 10
1028.00001064134
 20
2392.498752636801
 30
0.0
 40
4.0
  0
CIRCLE
  5
5167
330
18
100
AcDbEntity
  8
1
100
AcDbCircle
 10
1028.00001064134
 20
2392.498752636801
 30
0.0
 40
3.499999899999999
  0
CIRCLE
  5
5168
330
18
100
AcDbEntity
  8
1
100
AcDbCircle
 10
1028.00001064134
 20
2392.498752636801
 30
0.0
 40
5.7499995
  0
LINE
  5
5169
330
18
100
AcDbEntity
  8
1
100
AcDbLine
 10
1022.00001564134
 20
2395.962852636801
 30
0.0
 11
1022.00001564134
 21
2389.034646636801
 31
0.0
  0
LINE
  5
516A
330
18
100
AcDbEntity
  8
1
100
AcDbLine
 10
1034.00000564134
 20
2395.962852636801
 30
0.0
 11
1034.00000564134
 21
2389.034646636801
 31
0.0
  0
LINE
  5
516B
330
18
100
AcDbEntity
  8
CENTER
100
AcDbLine
 10
1028.00001064134
 20
2379.9987526368
 30
0.0
 11
1028.00001064134
 21
2404.998752636801
 31
0.0
  0
LINE
  5
516C
330
18
100
AcDbEntity
  8
CENTER
100
AcDbLine
 10
1015.50001064134
 20
2392.498752636801
 30
0.0
 11
1040.50001064134
 21
2392.498752636801
 31
0.0
  0
LINE
  5
516D
330
18
100
AcDbEntity
  8
1
100
AcDbLine
 10
1017.5
 20
2410.498731850532
 30
0.0
 11
1043.0
 21
2410.498731850532
 31
0.0
  0
LINE
  5
516E
330
18
100
AcDbEntity
  8
1
100
AcDbLine
 10
1028.00001064134
 20
2399.4269476368
 30
0.0
 11
1022.00001564134
 21
2395.9628476368
 31
0.0
  0
LINE
  5
516F
330
18
100
AcDbEntity
  8
1
100
AcDbLine
 10
1017.5
 20
2405.998731850532
 30
0.0
 11
1017.5
 21
2410.498731850532
 31
0.0
  0
ARC
  5
5170
330
18
100
AcDbEntity
  8
1
100
AcDbCircle
 10
1014.499999999999
 20
2405.998731850532
 30
0.0
 40
3.0
100
AcDbArc
 50
269.9999999999998
 51
359.9999999999999
  0
LINE
  5
5171
330
18
100
AcDbEntity
  8
1
100
AcDbLine
 10
1034.00000564134
 20
2395.962852636801
 30
0.0
 11
1028.00001064134
 21
2399.4269476368
 31
0.0
  0
LINE
  5
5172
330
18
100
AcDbEntity
  8
1
100
AcDbLine
 10
1028.00001064134
 20
2385.570551136801
 30
0.0
 11
1022.00001564134
 21
2389.034646636801
 31
0.0
  0
LINE
  5
5173
330
18
100
AcDbEntity
  8
1
100
AcDbLine
 10
1028.00001064134
 20
2385.570551136801
 30
0.0
 11
1034.00000564134
 21
2389.034646636801
 31
0.0
  0
LINE
  5
5174
330
18
100
AcDbEntity
  8
1
100
AcDbLine
 10
1010.0
 20
2377.498731850532
 30
0.0
 11
1010.0
 21
2402.998731850532
 31
0.0
  0
LINE
  5
5175
330
18
100
AcDbEntity
  8
1
100
AcDbLine
 10
1007.0
 20
2407.498731850532
 30
0.0
 11
1007.0
 21
2377.498731850532
 31
0.0
  0
LINE
  5
5176
330
18
100
AcDbEntity
  8
1
100
AcDbLine
 10
1010.0
 20
2402.998731850532
 30
0.0
 11
1010.0
 21
2407.498731850532
 31
0.0
  0
ARC
  5
5177
330
18
100
AcDbEntity
  8
1
100
AcDbCircle
 10
1013.0
 20
2407.498731850532
 30
0.0
 40
6.0
100
AcDbArc
 50
89.99999999999976
 51
180.0
  0
ARC
  5
5178
330
18
100
AcDbEntity
  8
1
100
AcDbCircle
 10
1013.0
 20
2407.498731850532
 30
0.0
 40
3.0
100
AcDbArc
 50
90.0
 51
179.9999999999999
  0
LINE
  5
5179
330
18
100
AcDbEntity
  8
1
100
AcDbLine
 10
700.0
 20
2384.998731850533
 30
0.0
 11
707.5
 21
2377.498731850532
 31
0.0
  0
LINE
  5
517A
330
18
100
AcDbEntity
  8
1
100
AcDbLine
 10
736.0
 20
2377.498731850532
 30
0.0
 11
707.5
 21
2377.498731850532
 31
0.0
  0
LINE
  5
517B
330
18
100
AcDbEntity
  8
1
100
AcDbLine
 10
700.0
 20
2413.498731850532
 30
0.0
 11
700.0
 21
2384.998731850533
 31
0.0
  0
LINE
  5
517C
330
18
100
AcDbEntity
  8
1
100
AcDbLine
 10
730.0
 20
2410.498731850532
 30
0.0
 11
725.4999999999999
 21
2410.498731850532
 31
0.0
  0
LINE
  5
517D
330
18
100
AcDbEntity
  8
1
100
AcDbLine
 10
730.0
 20
2413.498731850532
 30
0.0
 11
700.0
 21
2413.498731850532
 31
0.0
  0
LINE
  5
517E
330
18
100
AcDbEntity
  8
1
100
AcDbLine
 10
733.0
 20
2402.998731850532
 30
0.0
 11
728.5
 21
2402.998731850532
 31
0.0
  0
CIRCLE
  5
517F
330
18
100
AcDbEntity
  8
1
100
AcDbCircle
 10
714.9999893586594
 20
2392.498752636801
 30
0.0
 40
4.0
  0
CIRCLE
  5
5180
330
18
100
AcDbEntity
  8
1
100
AcDbCircle
 10
714.9999893586594
 20
2392.498752636801
 30
0.0
 40
3.499999899999999
  0
CIRCLE
  5
5181
330
18
100
AcDbEntity
  8
1
100
AcDbCircle
 10
714.9999893586594
 20
2392.498752636801
 30
0.0
 40
5.7499995
  0
LINE
  5
5182
330
18
100
AcDbEntity
  8
1
100
AcDbLine
 10
720.9999843586595
 20
2395.962852636801
 30
0.0
 11
720.9999843586595
 21
2389.034646636801
 31
0.0
  0
LINE
  5
5183
330
18
100
AcDbEntity
  8
1
100
AcDbLine
 10
708.9999943586595
 20
2395.962852636801
 30
0.0
 11
708.9999943586595
 21
2389.034646636801
 31
0.0
  0
LINE
  5
5184
330
18
100
AcDbEntity
  8
CENTER
100
AcDbLine
 10
714.9999893586594
 20
2379.9987526368
 30
0.0
 11
714.9999893586594
 21
2404.998752636801
 31
0.0
  0
LINE
  5
5185
330
18
100
AcDbEntity
  8
CENTER
100
AcDbLine
 10
727.4999893586594
 20
2392.498752636801
 30
0.0
 11
702.4999893586594
 21
2392.498752636801
 31
0.0
  0
LINE
  5
5186
330
18
100
AcDbEntity
  8
1
100
AcDbLine
 10
725.4999999999999
 20
2410.498731850532
 30
0.0
 11
700.0
 21
2410.498731850532
 31
0.0
  0
LINE
  5
5187
330
18
100
AcDbEntity
  8
1
100
AcDbLine
 10
714.9999893586594
 20
2399.4269476368
 30
0.0
 11
720.9999843586595
 21
2395.9628476368
 31
0.0
  0
LINE
  5
5188
330
18
100
AcDbEntity
  8
1
100
AcDbLine
 10
725.4999999999999
 20
2405.998731850532
 30
0.0
 11
725.4999999999999
 21
2410.498731850532
 31
0.0
  0
ARC
  5
5189
330
18
100
AcDbEntity
  8
1
100
AcDbCircle
 10
728.5
 20
2405.998731850532
 30
0.0
 40
3.0
100
AcDbArc
 50
180.0
 51
270.0
  0
LINE
  5
518A
330
18
100
AcDbEntity
  8
1
100
AcDbLine
 10
708.9999943586595
 20
2395.962852636801
 30
0.0
 11
714.9999893586594
 21
2399.4269476368
 31
0.0
  0
LINE
  5
518B
330
18
100
AcDbEntity
  8
1
100
AcDbLine
 10
714.9999893586594
 20
2385.570551136801
 30
0.0
 11
720.9999843586595
 21
2389.034646636801
 31
0.0
  0
LINE
  5
518C
330
18
100
AcDbEntity
  8
1
100
AcDbLine
 10
714.9999893586594
 20
2385.570551136801
 30
0.0
 11
708.9999943586595
 21
2389.034646636801
 31
0.0
  0
LINE
  5
518D
330
18
100
AcDbEntity
  8
1
100
AcDbLine
 10
733.0
 20
2377.498731850532
 30
0.0
 11
733.0
 21
2402.998731850532
 31
0.0
  0
LINE
  5
518E
330
18
100
AcDbEntity
  8
1
100
AcDbLine
 10
736.0
 20
2407.498731850532
 30
0.0
 11
736.0
 21
2377.498731850532
 31
0.0
  0
LINE
  5
518F
330
18
100
AcDbEntity
  8
1
100
AcDbLine
 10
733.0
 20
2402.998731850532
 30
0.0
 11
733.0
 21
2407.498731850532
 31
0.0
  0
ARC
  5
5190
330
18
100
AcDbEntity
  8
1
100
AcDbCircle
 10
730.0
 20
2407.498731850532
 30
0.0
 40
6.0
100
AcDbArc
 50
360.0
 51
90.0
  0
ARC
  5
5191
330
18
100
AcDbEntity
  8
1
100
AcDbCircle
 10
730.0
 20
2407.498731850532
 30
0.0
 40
3.0
100
AcDbArc
 50
360.0
 51
90.0
  0
LINE
  5
5192
330
18
100
AcDbEntity
  8
0
100
AcDbLine
 10
736.0
 20
2659.998731850532
 30
0.0
 11
1007.0
 21
2659.998731850532
 31
0.0
  0
LINE
  5
5193
330
18
100
AcDbEntity
  8
0
100
AcDbLine
 10
700.0
 20
2413.498731850532
 30
0.0
 11
700.0
 21
2623.998731850532
 31
0.0
  0
LINE
  5
5194
330
18
100
AcDbEntity
  8
0
100
AcDbLine
 10
1007.0
 20
2377.498731850533
 30
0.0
 11
736.0
 21
2377.498731850533
 31
0.0
  0
LINE
  5
5195
330
18
100
AcDbEntity
  8
0
100
AcDbLine
 10
1043.0
 20
2623.998731850532
 30
0.0
 11
1043.0
 21
2413.498731850532
 31
0.0
  0
LINE
  5
5B44
330
18
100
AcDbEntity
  8
1
100
AcDbLine
 10
870.0000000000009
 20
3338.0
 30
0.0
 11
928.000000000001
 21
3337.999999999999
 31
0.0
  0
LINE
  5
5B45
330
18
100
AcDbEntity
  8
1
100
AcDbLine
 10
870.0
 20
3269.0
 30
0.0
 11
928.000000000001
 21
3269.0
 31
0.0
  0
LINE
  5
5B46
330
18
100
AcDbEntity
  8
1
100
AcDbLine
 10
872.0
 20
3258.000000000001
 30
0.0
 11
926.0000000000008
 21
3258.000000000001
 31
0.0
  0
LINE
  5
5B47
330
18
100
AcDbEntity
  8
1
100
AcDbLine
 10
872.0
 20
3349.300000000001
 30
0.0
 11
926.0000000000008
 21
3349.300000000001
 31
0.0
  0
LINE
  5
5B48
330
18
100
AcDbEntity
  8
1
100
AcDbLine
 10
872.0000000000009
 20
3349.300000000001
 30
0.0
 11
872.0
 21
3338.0
 31
0.0
  0
LINE
  5
5B49
330
18
100
AcDbEntity
  8
1
100
AcDbLine
 10
870.0
 20
3340.0
 30
0.0
 11
872.0
 21
3340.0
 31
0.0
  0
LINE
  5
5B4A
330
18
100
AcDbEntity
  8
1
100
AcDbLine
 10
870.0000000000009
 20
3340.0
 30
0.0
 11
870.0000000000009
 21
3338.0
 31
0.0
  0
LINE
  5
5B4B
330
18
100
AcDbEntity
  8
1
100
AcDbLine
 10
870.0
 20
3340.0
 30
0.0
 11
870.0
 21
3337.999999999999
 31
0.0
  0
LINE
  5
5B4C
330
18
100
AcDbEntity
  8
1
100
AcDbLine
 10
870.0
 20
3267.0
 30
0.0
 11
872.0
 21
3267.0
 31
0.0
  0
LINE
  5
5B4D
330
18
100
AcDbEntity
  8
1
100
AcDbLine
 10
870.0
 20
3269.0
 30
0.0
 11
870.0
 21
3267.0
 31
0.0
  0
LINE
  5
5B4E
330
18
100
AcDbEntity
  8
1
100
AcDbLine
 10
872.0
 20
3269.0
 30
0.0
 11
872.0
 21
3258.000000000001
 31
0.0
  0
LINE
  5
5B4F
330
18
100
AcDbEntity
  8
1
100
AcDbLine
 10
875.0000000000008
 20
3338.0
 30
0.0
 11
875.0000000000008
 21
3269.0
 31
0.0
  0
LINE
  5
5B50
330
18
100
AcDbEntity
  8
1
100
AcDbLine
 10
926.0000000000008
 20
3349.300000000001
 30
0.0
 11
926.0000000000008
 21
3338.0
 31
0.0
  0
LINE
  5
5B51
330
18
100
AcDbEntity
  8
1
100
AcDbLine
 10
926.0000000000008
 20
3340.000000000001
 30
0.0
 11
928.000000000001
 21
3340.000000000001
 31
0.0
  0
LINE
  5
5B52
330
18
100
AcDbEntity
  8
1
100
AcDbLine
 10
928.000000000001
 20
3340.000000000001
 30
0.0
 11
928.000000000001
 21
3337.999999999999
 31
0.0
  0
LINE
  5
5B53
330
18
100
AcDbEntity
  8
1
100
AcDbLine
 10
928.000000000001
 20
3340.000000000001
 30
0.0
 11
928.0
 21
3338.0
 31
0.0
  0
LINE
  5
5B54
330
18
100
AcDbEntity
  8
1
100
AcDbLine
 10
926.0000000000008
 20
3269.0
 30
0.0
 11
926.0000000000008
 21
3258.000000000001
 31
0.0
  0
LINE
  5
5B55
330
18
100
AcDbEntity
  8
1
100
AcDbLine
 10
926.0000000000008
 20
3266.999999999999
 30
0.0
 11
928.000000000001
 21
3266.999999999999
 31
0.0
  0
LINE
  5
5B56
330
18
100
AcDbEntity
  8
1
100
AcDbLine
 10
928.000000000001
 20
3269.0
 30
0.0
 11
928.000000000001
 21
3266.999999999999
 31
0.0
  0
LINE
  5
5B57
330
18
100
AcDbEntity
  8
1
100
AcDbLine
 10
923.0000000000009
 20
3269.0
 30
0.0
 11
923.0000000000009
 21
3337.999999999999
 31
0.0
  0
LINE
  5
698A
330
18
100
AcDbEntity
  8
1
100
AcDbLine
 10
1320.0
 20
4808.999999999999
 30
0.0
 11
1320.0
 21
4799.999999999999
 31
0.0
  0
ARC
  5
698B
330
18
100
AcDbEntity
  8
1
100
AcDbCircle
 10
1329.0
 20
4802.999999999999
 30
0.0
 40
6.0
100
AcDbArc
 50
0.0000000000000509
 51
90.0000000000001
  0
LINE
  5
698C
330
18
100
AcDbEntity
  8
1
100
AcDbLine
 10
1314.0
 20
4799.999999999999
 30
0.0
 11
1314.0
 21
4859.999999999999
 31
0.0
  0
LINE
  5
698D
330
18
100
AcDbEntity
  8
1
100
AcDbLine
 10
1386.0
 20
4787.999999999999
 30
0.0
 11
1386.0
 21
4844.999999999998
 31
0.0
  0
LINE
  5
698E
330
18
100
AcDbEntity
  8
0
100
AcDbLine
 10
1042.999999999999
 20
4295.0
 30
0.0
 11
1314.0
 21
4295.0
 31
0.0
  0
LINE
  5
698F
330
18
100
AcDbEntity
  8
0
100
AcDbLine
 10
1042.999999999999
 20
4355.0
 30
0.0
 11
1314.0
 21
4355.0
 31
0.0
  0
LINE
  5
6990
330
18
100
AcDbEntity
  8
0
100
AcDbLine
 10
1314.0
 20
4799.999999999999
 30
0.0
 11
1042.999999999999
 21
4799.999999999999
 31
0.0
  0
LINE
  5
6991
330
18
100
AcDbEntity
  8
CENTER
100
AcDbLine
 10
1298.0
 20
4325.0
 30
0.0
 11
1298.0
 21
4340.0
 31
0.0
  0
CIRCLE
  5
6992
330
18
100
AcDbEntity
  8
SCALE
100
AcDbCircle
 10
1298.0
 20
4325.0
 30
0.0
 40
8.0
  0
LINE
  5
6993
330
18
100
AcDbEntity
  8
1
100
AcDbLine
 10
1320.0
 20
4295.0
 30
0.0
 11
1320.0
 21
4346.0
 31
0.0
  0
LINE
  5
6994
330
18
100
AcDbEntity
  8
1
100
AcDbLine
 10
1314.0
 20
4355.000000000001
 30
0.0
 11
1314.0
 21
4295.0
 31
0.0
  0
CIRCLE
  5
6995
330
18
100
AcDbEntity
  8
1
100
AcDbCircle
 10
1356.000021282681
 20
4325.000041572537
 30
0.0
 40
8.0
  0
CIRCLE
  5
6996
330
18
100
AcDbEntity
  8
1
100
AcDbCircle
 10
1356.000021282681
 20
4325.000041572537
 30
0.0
 40
6.999999799999999
  0
CIRCLE
  5
6997
330
18
100
AcDbEntity
  8
1
100
AcDbCircle
 10
1356.000021282681
 20
4325.000041572537
 30
0.0
 40
11.499999
  0
LINE
  5
6998
330
18
100
AcDbEntity
  8
1
100
AcDbLine
 10
1344.000031282681
 20
4331.928241572537
 30
0.0
 11
1344.000031282681
 21
4318.071829572537
 31
0.0
  0
LINE
  5
6999
330
18
100
AcDbEntity
  8
1
100
AcDbLine
 10
1368.000011282681
 20
4331.928241572537
 30
0.0
 11
1368.000011282681
 21
4318.071829572537
 31
0.0
  0
LINE
  5
699A
330
18
100
AcDbEntity
  8
CENTER
100
AcDbLine
 10
1356.000021282681
 20
4300.000041572537
 30
0.0
 11
1356.000021282681
 21
4350.000041572537
 31
0.0
  0
CIRCLE
  5
699B
330
18
100
AcDbEntity
  8
1
100
AcDbCircle
 10
1356.000021282681
 20
4325.000041572537
 30
0.0
 40
20.0
  0
LINE
  5
699C
330
18
100
AcDbEntity
  8
1
100
AcDbLine
 10
1386.0
 20
4367.0
 30
0.0
 11
1386.0
 21
4310.000000000001
 31
0.0
  0
LINE
  5
699D
330
18
100
AcDbEntity
  8
CENTER
100
AcDbLine
 10
1331.000021282681
 20
4325.000041572537
 30
0.0
 11
1381.000021282681
 21
4325.000041572537
 31
0.0
  0
LINE
  5
699E
330
18
100
AcDbEntity
  8
1
100
AcDbLine
 10
1386.0
 20
4310.000000000001
 30
0.0
 11
1371.0
 21
4295.0
 31
0.0
  0
LINE
  5
699F
330
18
100
AcDbEntity
  8
CENTER
100
AcDbLine
 10
1298.0
 20
4325.0
 30
0.0
 11
1313.0
 21
4325.0
 31
0.0
  0
LINE
  5
69A0
330
18
100
AcDbEntity
  8
1
100
AcDbLine
 10
1356.000021282681
 20
4311.143638572537
 30
0.0
 11
1368.000011282681
 21
4318.071829572537
 31
0.0
  0
LINE
  5
69A1
330
18
100
AcDbEntity
  8
1
100
AcDbLine
 10
1356.000021282681
 20
4311.143638572537
 30
0.0
 11
1344.000031282681
 21
4318.071829572537
 31
0.0
  0
LINE
  5
69A2
330
18
100
AcDbEntity
  8
1
100
AcDbLine
 10
1314.0
 20
4295.0
 30
0.0
 11
1371.0
 21
4295.0
 31
0.0
  0
LINE
  5
69A3
330
18
100
AcDbEntity
  8
CENTER
100
AcDbLine
 10
1298.0
 20
4325.0
 30
0.0
 11
1283.0
 21
4325.0
 31
0.0
  0
LINE
  5
69A4
330
18
100
AcDbEntity
  8
CENTER
100
AcDbLine
 10
1298.0
 20
4325.0
 30
0.0
 11
1298.0
 21
4310.0
 31
0.0
  0
LINE
  5
69A5
330
18
100
AcDbEntity
  8
0
100
AcDbLine
 10
1386.0
 20
4367.0
 30
0.0
 11
1386.0
 21
4787.999999999999
 31
0.0
  0
LINE
  5
69A6
330
18
100
AcDbEntity
  8
0
100
AcDbLine
 10
1326.0
 20
4367.0
 30
0.0
 11
1326.0
 21
4787.999999999999
 31
0.0
  0
LINE
  5
69A7
330
18
100
AcDbEntity
  8
1
100
AcDbLine
 10
1326.0
 20
4367.0
 30
0.0
 11
1386.0
 21
4367.0
 31
0.0
  0
LINE
  5
69A8
330
18
100
AcDbEntity
  8
1
100
AcDbLine
 10
1335.0
 20
4361.0
 30
0.0
 11
1386.0
 21
4361.0
 31
0.0
  0
LINE
  5
69A9
330
18
100
AcDbEntity
  8
1
100
AcDbLine
 10
1320.0
 20
4346.0
 30
0.0
 11
1320.0
 21
4355.000000000001
 31
0.0
  0
LINE
  5
69AA
330
18
100
AcDbEntity
  8
1
100
AcDbLine
 10
1335.0
 20
4352.000000000001
 30
0.0
 11
1335.0
 21
4361.0
 31
0.0
  0
ARC
  5
69AB
330
18
100
AcDbEntity
  8
1
100
AcDbCircle
 10
1329.0
 20
4352.000000000001
 30
0.0
 40
6.0
100
AcDbArc
 50
270.0
 51
0.0
  0
LINE
  5
69AC
330
18
100
AcDbEntity
  8
1
100
AcDbLine
 10
1320.0
 20
4346.0
 30
0.0
 11
1329.0
 21
4346.0
 31
0.0
  0
LINE
  5
69AD
330
18
100
AcDbEntity
  8
1
100
AcDbLine
 10
1326.0
 20
4361.0
 30
0.0
 11
1335.0
 21
4361.0
 31
0.0
  0
LINE
  5
69AE
330
18
100
AcDbEntity
  8
1
100
AcDbLine
 10
1368.000011282681
 20
4331.928241572537
 30
0.0
 11
1356.000021282681
 21
4338.856431572536
 31
0.0
  0
LINE
  5
69AF
330
18
100
AcDbEntity
  8
1
100
AcDbLine
 10
1356.000021282681
 20
4338.856431572536
 30
0.0
 11
1344.000031282681
 21
4331.928231572536
 31
0.0
  0
ARC
  5
69B0
330
18
100
AcDbEntity
  8
1
100
AcDbCircle
 10
1326.0
 20
4355.000000000001
 30
0.0
 40
12.0
100
AcDbArc
 50
90.0
 51
180.0
  0
ARC
  5
69B1
330
18
100
AcDbEntity
  8
1
100
AcDbCircle
 10
1326.0
 20
4355.000000000001
 30
0.0
 40
6.0
100
AcDbArc
 50
90.0
 51
180.0
  0
LINE
  5
69B2
330
18
100
AcDbEntity
  8
1
100
AcDbLine
 10
1335.0
 20
4793.999999999999
 30
0.0
 11
1386.0
 21
4793.999999999999
 31
0.0
  0
LINE
  5
69B3
330
18
100
AcDbEntity
  8
1
100
AcDbLine
 10
1326.0
 20
4787.999999999999
 30
0.0
 11
1386.0
 21
4787.999999999999
 31
0.0
  0
ARC
  5
69B4
330
18
100
AcDbEntity
  8
1
100
AcDbCircle
 10
1326.0
 20
4799.999999999999
 30
0.0
 40
12.0
100
AcDbArc
 50
180.0
 51
270.0000000000002
  0
ARC
  5
69B5
330
18
100
AcDbEntity
  8
1
100
AcDbCircle
 10
1326.0
 20
4799.999999999999
 30
0.0
 40
6.0
100
AcDbArc
 50
180.0000000000001
 51
270.0
  0
LINE
  5
69B6
330
18
100
AcDbEntity
  8
1
100
AcDbLine
 10
1335.0
 20
4802.999999999999
 30
0.0
 11
1335.0
 21
4793.999999999999
 31
0.0
  0
LINE
  5
69B7
330
18
100
AcDbEntity
  8
1
100
AcDbLine
 10
1326.0
 20
4793.999999999999
 30
0.0
 11
1335.0
 21
4793.999999999999
 31
0.0
  0
LINE
  5
69B8
330
18
100
AcDbEntity
  8
0
100
AcDbLine
 10
1314.0
 20
4859.999999999999
 30
0.0
 11
1042.999999999999
 21
4859.999999999999
 31
0.0
  0
LINE
  5
69B9
330
18
100
AcDbEntity
  8
CENTER
100
AcDbLine
 10
1331.000021282681
 20
4829.999958427463
 30
0.0
 11
1381.000021282681
 21
4829.999958427463
 31
0.0
  0
LINE
  5
69BA
330
18
100
AcDbEntity
  8
1
100
AcDbLine
 10
1386.0
 20
4844.999999999998
 30
0.0
 11
1371.0
 21
4859.999999999999
 31
0.0
  0
CIRCLE
  5
69BB
330
18
100
AcDbEntity
  8
1
100
AcDbCircle
 10
1356.000021282681
 20
4829.999958427463
 30
0.0
 40
20.0
  0
CIRCLE
  5
69BC
330
18
100
AcDbEntity
  8
SCALE
100
AcDbCircle
 10
1298.0
 20
4829.999999999985
 30
0.0
 40
8.0
  0
LINE
  5
69BD
330
18
100
AcDbEntity
  8
CENTER
100
AcDbLine
 10
1298.0
 20
4830.0
 30
0.0
 11
1313.0
 21
4830.0
 31
0.0
  0
LINE
  5
69BE
330
18
100
AcDbEntity
  8
1
100
AcDbLine
 10
1356.000021282681
 20
4843.856361427462
 30
0.0
 11
1368.000011282681
 21
4836.928170427462
 31
0.0
  0
LINE
  5
69BF
330
18
100
AcDbEntity
  8
1
100
AcDbLine
 10
1356.000021282681
 20
4843.856361427462
 30
0.0
 11
1344.000031282681
 21
4836.928170427462
 31
0.0
  0
LINE
  5
69C0
330
18
100
AcDbEntity
  8
1
100
AcDbLine
 10
1314.0
 20
4859.999999999999
 30
0.0
 11
1371.0
 21
4859.999999999999
 31
0.0
  0
LINE
  5
69C1
330
18
100
AcDbEntity
  8
1
100
AcDbLine
 10
1320.0
 20
4808.999999999999
 30
0.0
 11
1329.0
 21
4808.999999999999
 31
0.0
  0
LINE
  5
69C2
330
18
100
AcDbEntity
  8
1
100
AcDbLine
 10
1368.000011282681
 20
4823.071758427463
 30
0.0
 11
1356.000021282681
 21
4816.143568427463
 31
0.0
  0
LINE
  5
69C3
330
18
100
AcDbEntity
  8
1
100
AcDbLine
 10
1356.000021282681
 20
4816.143568427463
 30
0.0
 11
1344.000031282681
 21
4823.071768427462
 31
0.0
  0
LINE
  5
69C4
330
18
100
AcDbEntity
  8
1
100
AcDbLine
 10
1320.0
 20
4859.999999999999
 30
0.0
 11
1320.0
 21
4808.999999999999
 31
0.0
  0
CIRCLE
  5
69C5
330
18
100
AcDbEntity
  8
1
100
AcDbCircle
 10
1356.000021282681
 20
4829.999958427463
 30
0.0
 40
8.0
  0
CIRCLE
  5
69C6
330
18
100
AcDbEntity
  8
1
100
AcDbCircle
 10
1356.000021282681
 20
4829.999958427463
 30
0.0
 40
6.999999799999999
  0
CIRCLE
  5
69C7
330
18
100
AcDbEntity
  8
1
100
AcDbCircle
 10
1356.000021282681
 20
4829.999958427463
 30
0.0
 40
11.499999
  0
LINE
  5
69C8
330
18
100
AcDbEntity
  8
1
100
AcDbLine
 10
1344.000031282681
 20
4823.071758427463
 30
0.0
 11
1344.000031282681
 21
4836.928170427462
 31
0.0
  0
LINE
  5
69C9
330
18
100
AcDbEntity
  8
1
100
AcDbLine
 10
1368.000011282681
 20
4823.071758427463
 30
0.0
 11
1368.000011282681
 21
4836.928170427462
 31
0.0
  0
LINE
  5
69CA
330
18
100
AcDbEntity
  8
CENTER
100
AcDbLine
 10
1356.000021282681
 20
4854.999958427463
 30
0.0
 11
1356.000021282681
 21
4804.999958427463
 31
0.0
  0
LINE
  5
69CB
330
18
100
AcDbEntity
  8
CENTER
100
AcDbLine
 10
1298.0
 20
4830.0
 30
0.0
 11
1298.0
 21
4815.0
 31
0.0
  0
LINE
  5
69CC
330
18
100
AcDbEntity
  8
CENTER
100
AcDbLine
 10
1298.0
 20
4830.0
 30
0.0
 11
1283.0
 21
4830.0
 31
0.0
  0
LINE
  5
69CD
330
18
100
AcDbEntity
  8
CENTER
100
AcDbLine
 10
1298.0
 20
4830.0
 30
0.0
 11
1298.0
 21
4845.0
 31
0.0
  0
LINE
  5
69CE
330
18
100
AcDbEntity
  8
0
100
AcDbLine
 10
1331.599999999999
 20
3237.000000000002
 30
0.0
 11
1042.999999999999
 21
3237.000000000002
 31
0.0
  0
LINE
  5
69CF
330
18
100
AcDbEntity
  8
0
100
AcDbLine
 10
1314.999999999999
 20
3267.000000000002
 30
0.0
 11
1043.0
 21
3267.000000000003
 31
0.0
  0
LINE
  5
69D0
330
18
100
AcDbEntity
  8
0
100
AcDbLine
 10
1314.999999999999
 20
3340.000000000002
 30
0.0
 11
1043.0
 21
3340.000000000003
 31
0.0
  0
LINE
  5
69D1
330
18
100
AcDbEntity
  8
0
100
AcDbLine
 10
1043.0
 20
3370.000000000001
 30
0.0
 11
1314.999999999999
 21
3370.000000000002
 31
0.0
  0
LINE
  5
69D2
330
18
100
AcDbEntity
  8
SCALE
100
AcDbLine
 10
1370.500152319755
 20
3302.000000000001
 30
0.0
 11
1377.000152319755
 21
3302.000000000001
 31
0.0
  0
LINE
  5
69D3
330
18
100
AcDbEntity
  8
SCALE
100
AcDbLine
 10
1336.999999999999
 20
3308.200000000001
 30
0.0
 11
1377.000152319755
 21
3308.200000000001
 31
0.0
  0
LINE
  5
69D4
330
18
100
AcDbEntity
  8
SCALE
100
AcDbLine
 10
1336.999999999999
 20
3305.000000000001
 30
0.0
 11
1377.000152319755
 21
3305.000000000001
 31
0.0
  0
LINE
  5
69D5
330
18
100
AcDbEntity
  8
0
100
AcDbLine
 10
1320.999999999999
 20
3370.000000000001
 30
0.0
 11
1386.999999999999
 21
3370.000000000001
 31
0.0
  0
LINE
  5
69D6
330
18
100
AcDbEntity
  8
SCALE
100
AcDbLine
 10
1370.837251806832
 20
3267.000000000002
 30
0.0
 11
1386.999999999999
 21
3267.000000000002
 31
0.0
  0
LINE
  5
69D7
330
18
100
AcDbEntity
  8
SCALE
100
AcDbLine
 10
1320.999999999999
 20
3264.000000000002
 30
0.0
 11
1386.999999999999
 21
3264.000000000002
 31
0.0
  0
LINE
  5
69D8
330
18
100
AcDbEntity
  8
SCALE
100
AcDbLine
 10
1320.999999999999
 20
3258.000000000002
 30
0.0
 11
1386.999999999999
 21
3258.000000000002
 31
0.0
  0
LINE
  5
69D9
330
18
100
AcDbEntity
  8
SCALE
100
AcDbLine
 10
1326.999999999999
 20
3302.000000000001
 30
0.0
 11
1386.999999999999
 21
3302.000000000001
 31
0.0
  0
LINE
  5
69DA
330
18
100
AcDbEntity
  8
SCALE
100
AcDbLine
 10
1325.999999999999
 20
3296.000000000002
 30
0.0
 11
1386.999999999999
 21
3296.000000000002
 31
0.0
  0
LINE
  5
69DB
330
18
100
AcDbEntity
  8
0
100
AcDbLine
 10
1320.999999999999
 20
3237.000000000002
 30
0.0
 11
1382.999999999999
 21
3237.000000000002
 31
0.0
  0
LINE
  5
69DC
330
18
100
AcDbEntity
  8
0
100
AcDbLine
 10
1386.999999999999
 20
3267.000000000002
 30
0.0
 11
1386.999999999999
 21
3241.000000000002
 31
0.0
  0
ARC
  5
69DD
330
18
100
AcDbEntity
  8
0
100
AcDbCircle
 10
1382.999999999999
 20
3241.000000000002
 30
0.0
 40
4.0
100
AcDbArc
 50
270.0
 51
0.0
  0
LINE
  5
69DE
330
18
100
AcDbEntity
  8
SCALE
100
AcDbLine
 10
1376.999999999999
 20
3305.000000000001
 30
0.0
 11
1376.999999999999
 21
3308.200000000001
 31
0.0
  0
LINE
  5
69DF
330
18
100
AcDbEntity
  8
SCALE
100
AcDbLine
 10
1377.000152319755
 20
3305.000000000001
 30
0.0
 11
1377.000152319755
 21
3302.000000000001
 31
0.0
  0
LINE
  5
69E0
330
18
100
AcDbEntity
  8
0
100
AcDbLine
 10
1386.999999999999
 20
3296.000000000002
 30
0.0
 11
1386.999999999999
 21
3370.000000000001
 31
0.0
  0
LINE
  5
69E1
330
18
100
AcDbEntity
  8
CENTER
100
AcDbLine
 10
1261.0
 20
3274.000000000002
 30
0.0
 11
1261.0
 21
3230.000000000002
 31
0.0
  0
LINE
  5
69E2
330
18
100
AcDbEntity
  8
SCALE
100
AcDbLine
 10
1320.999999999999
 20
3267.000000000002
 30
0.0
 11
1320.999999999999
 21
3237.000000000002
 31
0.0
1001
ACAD
1000
ASC_BOUNDS
1002
{
1070
    19
1005
0
1002
}
  0
LINE
  5
69E3
330
18
100
AcDbEntity
  8
SCALE
100
AcDbLine
 10
1314.999999999999
 20
3267.000000000002
 30
0.0
 11
1314.999999999999
 21
3237.000000000002
 31
0.0
  0
ARC
  5
69E4
330
18
100
AcDbEntity
  8
SCALE
100
AcDbCircle
 10
1356.980857806832
 20
3282.340315193168
 30
0.0
 40
18.32118299999999
100
AcDbArc
 50
247.7806999999999
 51
292.2193199999999
  0
ARC
  5
69E5
330
18
100
AcDbEntity
  8
SCALE
100
AcDbCircle
 10
1367.373162806832
 20
3269.109591193169
 30
0.0
 40
5.090450299999999
100
AcDbArc
 50
227.1166379999999
 51
312.88331
  0
LINE
  5
69E6
330
18
100
AcDbEntity
  8
CENTER
100
AcDbLine
 10
1356.999999999999
 20
3309.953224621671
 30
0.0
 11
1356.999999999999
 21
3243.438259073012
 31
0.0
  0
ARC
  5
69E7
330
18
100
AcDbEntity
  8
SCALE
100
AcDbCircle
 10
1346.588557806832
 20
3269.109591193169
 30
0.0
 40
5.090450299999999
100
AcDbArc
 50
227.1166829999999
 51
312.88336
  0
LINE
  5
69E8
330
18
100
AcDbEntity
  8
CENTER
100
AcDbLine
 10
1356.999999999999
 20
3243.554392542625
 30
0.0
 11
1356.999999999999
 21
3338.126013589413
 31
0.0
  0
LINE
  5
69E9
330
18
100
AcDbEntity
  8
SCALE
100
AcDbLine
 10
1314.999999999999
 20
3237.000000000002
 30
0.0
 11
1320.999999999999
 21
3237.000000000002
 31
0.0
  0
LINE
  5
69EA
330
18
100
AcDbEntity
  8
1
100
AcDbLine
 10
1326.999999999999
 20
3237.000000000002
 30
0.0
 11
1320.999999999999
 21
3237.000000000002
 31
0.0
  0
LINE
  5
69EB
330
18
100
AcDbEntity
  8
SCALE
100
AcDbLine
 10
1343.143593539448
 20
3258.000000000002
 30
0.0
 11
1343.143593539448
 21
3251.500000000002
 31
0.0
  0
ARC
  5
69EC
330
18
100
AcDbEntity
  8
SCALE
100
AcDbCircle
 10
1356.999999999999
 20
3256.607142857145
 30
0.0
 40
8.607142857142852
100
AcDbArc
 50
216.3958791980992
 51
323.6041208019007
  0
ARC
  5
69ED
330
18
100
AcDbEntity
  8
SCALE
100
AcDbCircle
 10
1367.392304845412
 20
3251.464285714288
 30
0.0
 40
3.464285714285714
100
AcDbArc
 50
179.4093113971904
 51
0.590688602809523
  0
LINE
  5
69EE
330
18
100
AcDbEntity
  8
SCALE
100
AcDbLine
 10
1346.607695154586
 20
3248.000000000002
 30
0.0
 11
1367.392304845412
 21
3248.000000000002
 31
0.0
  0
LINE
  5
69EF
330
18
100
AcDbEntity
  8
SCALE
100
AcDbLine
 10
1350.071796769723
 20
3258.000000000002
 30
0.0
 11
1350.071796769723
 21
3251.500000000002
 31
0.0
  0
LINE
  5
69F0
330
18
100
AcDbEntity
  8
SCALE
100
AcDbLine
 10
1363.928203230274
 20
3258.000000000002
 30
0.0
 11
1363.928203230274
 21
3251.500000000002
 31
0.0
  0
LINE
  5
69F1
330
18
100
AcDbEntity
  8
SCALE
100
AcDbLine
 10
1370.85640646055
 20
3251.500000000002
 30
0.0
 11
1370.85640646055
 21
3258.000000000002
 31
0.0
  0
ARC
  5
69F2
330
18
100
AcDbEntity
  8
SCALE
100
AcDbCircle
 10
1346.607695154586
 20
3251.464285714288
 30
0.0
 40
3.464285714285714
100
AcDbArc
 50
179.4093113971904
 51
0.590688602809523
  0
LINE
  5
69F3
330
18
100
AcDbEntity
  8
0
100
AcDbLine
 10
1314.999999999999
 20
3370.000000000001
 30
0.0
 11
1320.999999999999
 21
3370.000000000001
 31
0.0
  0
LINE
  5
69F4
330
18
100
AcDbEntity
  8
SCALE
100
AcDbLine
 10
1351.552667806833
 20
3323.000000000002
 30
0.0
 11
1362.409066806833
 21
3323.000000000002
 31
0.0
  0
ARC
  5
69F5
330
18
100
AcDbEntity
  8
1
100
AcDbCircle
 10
1346.999959427483
 20
3321.200000000001
 30
0.0
 40
1.5
100
AcDbArc
 50
90.0
 51
180.0
  0
LINE
  5
69F6
330
18
100
AcDbEntity
  8
1
100
AcDbLine
 10
1345.499959427483
 20
3321.200000000001
 30
0.0
 11
1345.499959427483
 21
3321.018121492189
 31
0.0
  0
LINE
  5
69F7
330
18
100
AcDbEntity
  8
SCALE
100
AcDbLine
 10
1351.552667806833
 20
3323.000000000002
 30
0.0
 11
1351.252667806833
 21
3322.700000000001
 31
0.0
  0
LINE
  5
69F8
330
18
100
AcDbEntity
  8
SCALE
100
AcDbLine
 10
1362.409066806833
 20
3323.000000000002
 30
0.0
 11
1362.709066806832
 21
3322.700000000001
 31
0.0
  0
LINE
  5
69F9
330
18
100
AcDbEntity
  8
1
100
AcDbLine
 10
1368.499957427443
 20
3321.200000000001
 30
0.0
 11
1368.499957427443
 21
3321.018149550535
 31
0.0
  0
ARC
  5
69FA
330
18
100
AcDbEntity
  8
1
100
AcDbCircle
 10
1366.999957427443
 20
3321.200000000001
 30
0.0
 40
1.5
100
AcDbArc
 50
0.0
 51
90.0
  0
LINE
  5
69FB
330
18
100
AcDbEntity
  8
1
 62
     4
100
AcDbLine
 10
1367.392304845412
 20
3321.200000000001
 30
0.0
 11
1346.607695154586
 21
3321.200000000001
 31
0.0
  0
LINE
  5
69FC
330
18
100
AcDbEntity
  8
1
 62
     4
100
AcDbLine
 10
1366.999957427443
 20
3322.700000000001
 30
0.0
 11
1346.999959427483
 21
3322.700000000001
 31
0.0
  0
LINE
  5
69FD
330
18
100
AcDbEntity
  8
SCALE
100
AcDbLine
 10
1320.999999999999
 20
3267.000000000002
 30
0.0
 11
1314.999999999999
 21
3267.000000000002
 31
0.0
  0
LINE
  5
69FE
330
18
100
AcDbEntity
  8
SCALE
100
AcDbLine
 10
1336.999999999999
 20
3305.000000000001
 30
0.0
 11
1336.999999999999
 21
3308.200000000001
 31
0.0
  0
LINE
  5
69FF
330
18
100
AcDbEntity
  8
SCALE
100
AcDbLine
 10
1337.000152319755
 20
3305.000000000001
 30
0.0
 11
1337.000152319755
 21
3302.000000000001
 31
0.0
  0
ARC
  5
6A00
330
18
100
AcDbEntity
  8
SCALE
100
AcDbCircle
 10
1325.999999999999
 20
3307.000000000002
 30
0.0
 40
11.0
100
AcDbArc
 50
179.9999999999999
 51
270.0
  0
ARC
  5
6A01
330
18
100
AcDbEntity
  8
SCALE
100
AcDbCircle
 10
1326.999999999999
 20
3308.000000000002
 30
0.0
 40
6.0
100
AcDbArc
 50
180.0000000000002
 51
270.0
1001
ACAD
1000
ASC_BOUNDS
1002
{
1070
    19
1005
0
1002
}
  0
LINE
  5
6A02
330
18
100
AcDbEntity
  8
SCALE
100
AcDbLine
 10
1343.124477806832
 20
3272.658651193169
 30
0.0
 11
1343.124477806832
 21
3265.379602193169
 31
0.0
  0
LINE
  5
6A03
330
18
100
AcDbEntity
  8
SCALE
100
AcDbLine
 10
1342.000152319755
 20
3294.000000000002
 30
0.0
 11
1342.000152319755
 21
3291.500000000002
 31
0.0
  0
ARC
  5
6A04
330
18
100
AcDbEntity
  8
SCALE
100
AcDbCircle
 10
1356.980857806832
 20
3255.697932193169
 30
0.0
 40
18.32118299999999
100
AcDbArc
 50
67.78067000000003
 51
112.21929
  0
LINE
  5
6A05
330
18
100
AcDbEntity
  8
SCALE
100
AcDbLine
 10
1350.052667806832
 20
3290.000000000002
 30
0.0
 11
1350.052667806832
 21
3274.019112193168
 31
0.0
  0
LINE
  5
6A06
330
18
100
AcDbEntity
  8
SCALE
100
AcDbLine
 10
1350.052667806832
 20
3272.658649449328
 30
0.0
 11
1350.052667806832
 21
3265.379602193169
 31
0.0
  0
LINE
  5
6A07
330
18
100
AcDbEntity
  8
SCALE
100
AcDbLine
 10
1343.500152319755
 20
3296.000000000002
 30
0.0
 11
1343.500152319755
 21
3294.000000000002
 31
0.0
  0
LINE
  5
6A08
330
18
100
AcDbEntity
  8
SCALE
100
AcDbLine
 10
1363.909066806832
 20
3290.000000000002
 30
0.0
 11
1363.909066806832
 21
3274.019112193168
 31
0.0
  0
LINE
  5
6A09
330
18
100
AcDbEntity
  8
SCALE
100
AcDbLine
 10
1363.909066806832
 20
3272.658641688111
 30
0.0
 11
1363.909066806832
 21
3265.379602193169
 31
0.0
  0
LINE
  5
6A0A
330
18
100
AcDbEntity
  8
SCALE
100
AcDbLine
 10
1370.837251806832
 20
3272.658645193168
 30
0.0
 11
1370.837251806832
 21
3265.379609193169
 31
0.0
  0
LINE
  5
6A0B
330
18
100
AcDbEntity
  8
SCALE
100
AcDbLine
 10
1370.500152319755
 20
3296.000000000002
 30
0.0
 11
1370.500152319755
 21
3294.000000000002
 31
0.0
  0
LINE
  5
6A0C
330
18
100
AcDbEntity
  8
SCALE
100
AcDbLine
 10
1370.500152319755
 20
3290.000000000002
 30
0.0
 11
1372.000152319755
 21
3291.500000000002
 31
0.0
  0
LINE
  5
6A0D
330
18
100
AcDbEntity
  8
SCALE
100
AcDbLine
 10
1370.500152319755
 20
3294.000000000002
 30
0.0
 11
1372.000152319755
 21
3294.000000000002
 31
0.0
  0
LINE
  5
6A0E
330
18
100
AcDbEntity
  8
SCALE
100
AcDbLine
 10
1372.000152319755
 20
3294.000000000002
 30
0.0
 11
1372.000152319755
 21
3291.500000000002
 31
0.0
  0
LINE
  5
6A0F
330
18
100
AcDbEntity
  8
SCALE
100
AcDbLine
 10
1343.500152319755
 20
3294.000000000002
 30
0.0
 11
1370.500152319755
 21
3294.000000000002
 31
0.0
  0
LINE
  5
6A10
330
18
100
AcDbEntity
  8
SCALE
100
AcDbLine
 10
1343.500152319755
 20
3290.000000000002
 30
0.0
 11
1370.500152319755
 21
3290.000000000002
 31
0.0
  0
LINE
  5
6A11
330
18
100
AcDbEntity
  8
SCALE
100
AcDbLine
 10
1346.588557806832
 20
3274.019112193168
 30
0.0
 11
1367.373162806832
 21
3274.019112193168
 31
0.0
  0
ARC
  5
6A12
330
18
100
AcDbEntity
  8
SCALE
100
AcDbCircle
 10
1367.373162806832
 20
3268.928663193169
 30
0.0
 40
5.090450299999999
100
AcDbArc
 50
47.11667999999995
 51
132.8833599999999
  0
ARC
  5
6A13
330
18
100
AcDbEntity
  8
SCALE
100
AcDbCircle
 10
1346.588557806832
 20
3268.928663193169
 30
0.0
 40
5.090450299999999
100
AcDbArc
 50
47.11662999999996
 51
132.8833099999999
  0
LINE
  5
6A14
330
18
100
AcDbEntity
  8
SCALE
100
AcDbLine
 10
1343.500152319755
 20
3290.000000000002
 30
0.0
 11
1342.000152319755
 21
3291.500000000002
 31
0.0
  0
LINE
  5
6A15
330
18
100
AcDbEntity
  8
SCALE
100
AcDbLine
 10
1342.000152319755
 20
3294.000000000002
 30
0.0
 11
1343.500152319755
 21
3294.000000000002
 31
0.0
  0
LINE
  5
6A16
330
18
100
AcDbEntity
  8
1
100
AcDbLine
 10
1343.143593539448
 20
3308.200000000001
 30
0.0
 11
1370.85640646055
 21
3308.200000000001
 31
0.0
  0
LINE
  5
6A17
330
18
100
AcDbEntity
  8
SCALE
100
AcDbLine
 10
1372.000152319755
 20
3291.500000000002
 30
0.0
 11
1342.000152319755
 21
3291.500000000002
 31
0.0
  0
LINE
  5
6A18
330
18
100
AcDbEntity
  8
1
 62
     4
100
AcDbLine
 10
1343.143593539448
 20
3317.700000000001
 30
0.0
 11
1343.143593539448
 21
3308.200000000001
 31
0.0
  0
LINE
  5
6A19
330
18
100
AcDbEntity
  8
1
 62
     4
100
AcDbLine
 10
1350.071796769724
 20
3308.200000000001
 30
0.0
 11
1350.071796769723
 21
3317.700000000001
 31
0.0
  0
LINE
  5
6A1A
330
18
100
AcDbEntity
  8
1
 62
     4
100
AcDbLine
 10
1363.928203230274
 20
3308.200000000001
 30
0.0
 11
1363.928203230274
 21
3317.700000000001
 31
0.0
  0
LINE
  5
6A1B
330
18
100
AcDbEntity
  8
1
 62
     4
100
AcDbLine
 10
1370.85640646055
 20
3308.200000000001
 30
0.0
 11
1370.85640646055
 21
3317.700000000001
 31
0.0
  0
LINE
  5
6A1C
330
18
100
AcDbEntity
  8
SCALE
100
AcDbLine
 10
1320.999999999999
 20
3267.000000000002
 30
0.0
 11
1343.124477806832
 21
3267.000000000002
 31
0.0
  0
LINE
  5
6A1D
330
18
100
AcDbEntity
  8
SCALE
100
AcDbLine
 10
1337.000152319755
 20
3302.000000000001
 30
0.0
 11
1343.500152319755
 21
3302.000000000001
 31
0.0
  0
ARC
  5
6A1E
330
18
100
AcDbEntity
  8
1
 62
     4
100
AcDbCircle
 10
1356.999999999999
 20
3312.592857142859
 30
0.0
 40
8.607142857142854
100
AcDbArc
 50
36.39587919809928
 51
143.6041208019006
  0
ARC
  5
6A1F
330
18
100
AcDbEntity
  8
1
 62
     4
100
AcDbCircle
 10
1367.392304845412
 20
3317.735714285716
 30
0.0
 40
3.464285714285713
100
AcDbArc
 50
359.4093113971905
 51
180.5906886028093
  0
ARC
  5
6A20
330
18
100
AcDbEntity
  8
1
 62
     4
100
AcDbCircle
 10
1346.607695154586
 20
3317.735714285716
 30
0.0
 40
3.464285714285713
100
AcDbArc
 50
359.4093113971905
 51
180.5906886028093
  0
LINE
  5
6A21
330
18
100
AcDbEntity
  8
SCALE
100
AcDbLine
 10
1314.999999999999
 20
3307.000000000002
 30
0.0
 11
1314.999999999999
 21
3370.000000000001
 31
0.0
  0
LINE
  5
6A22
330
18
100
AcDbEntity
  8
SCALE
100
AcDbLine
 10
1320.999999999999
 20
3308.000000000002
 30
0.0
 11
1320.999999999999
 21
3370.000000000001
 31
0.0
1001
ACAD
1000
ASC_BOUNDS
1002
{
1070
    19
1005
0
1002
}
  0
LINE
  5
6A23
330
18
100
AcDbEntity
  8
CENTER
100
AcDbLine
 10
1298.0
 20
3377.000000000002
 30
0.0
 11
1298.0
 21
3333.000000000002
 31
0.0
  0
LINE
  5
6A24
330
18
100
AcDbEntity
  8
1
100
AcDbLine
 10
1159.999999999999
 20
3269.0
 30
0.0
 11
1159.999999999999
 21
3258.000000000001
 31
0.0
  0
LINE
  5
6A25
330
18
100
AcDbEntity
  8
1
100
AcDbLine
 10
1214.0
 20
3269.0
 30
0.0
 11
1214.0
 21
3258.000000000001
 31
0.0
  0
LINE
  5
6A26
330
18
100
AcDbEntity
  8
1
100
AcDbLine
 10
1214.0
 20
3258.000000000001
 30
0.0
 11
1159.999999999999
 21
3258.000000000001
 31
0.0
  0
LINE
  5
6A27
330
18
100
AcDbEntity
  8
1
100
AcDbLine
 10
1162.999999999999
 20
3269.0
 30
0.0
 11
1162.999999999999
 21
3337.999999999999
 31
0.0
  0
LINE
  5
6A28
330
18
100
AcDbEntity
  8
1
100
AcDbLine
 10
1159.999999999999
 20
3266.999999999999
 30
0.0
 11
1157.999999999999
 21
3266.999999999999
 31
0.0
  0
LINE
  5
6A29
330
18
100
AcDbEntity
  8
1
100
AcDbLine
 10
1157.999999999999
 20
3269.0
 30
0.0
 11
1157.999999999999
 21
3266.999999999999
 31
0.0
  0
LINE
  5
6A2A
330
18
100
AcDbEntity
  8
1
100
AcDbLine
 10
1159.999999999999
 20
3349.300000000001
 30
0.0
 11
1159.999999999999
 21
3338.0
 31
0.0
  0
LINE
  5
6A2B
330
18
100
AcDbEntity
  8
1
100
AcDbLine
 10
1159.999999999999
 20
3340.000000000001
 30
0.0
 11
1157.999999999999
 21
3340.000000000001
 31
0.0
  0
LINE
  5
6A2C
330
18
100
AcDbEntity
  8
1
100
AcDbLine
 10
1157.999999999999
 20
3340.000000000001
 30
0.0
 11
1157.999999999999
 21
3337.999999999999
 31
0.0
  0
LINE
  5
6A2D
330
18
100
AcDbEntity
  8
1
100
AcDbLine
 10
1157.999999999999
 20
3340.000000000001
 30
0.0
 11
1158.0
 21
3338.0
 31
0.0
  0
LINE
  5
6A2E
330
18
100
AcDbEntity
  8
1
100
AcDbLine
 10
1210.999999999999
 20
3338.0
 30
0.0
 11
1210.999999999999
 21
3269.0
 31
0.0
  0
LINE
  5
6A2F
330
18
100
AcDbEntity
  8
1
100
AcDbLine
 10
1216.0
 20
3267.0
 30
0.0
 11
1214.0
 21
3267.0
 31
0.0
  0
LINE
  5
6A30
330
18
100
AcDbEntity
  8
1
100
AcDbLine
 10
1216.0
 20
3269.0
 30
0.0
 11
1216.0
 21
3267.0
 31
0.0
  0
LINE
  5
6A31
330
18
100
AcDbEntity
  8
1
100
AcDbLine
 10
1216.0
 20
3340.0
 30
0.0
 11
1214.0
 21
3340.0
 31
0.0
  0
LINE
  5
6A32
330
18
100
AcDbEntity
  8
1
100
AcDbLine
 10
1215.999999999999
 20
3340.0
 30
0.0
 11
1215.999999999999
 21
3338.0
 31
0.0
  0
LINE
  5
6A33
330
18
100
AcDbEntity
  8
1
100
AcDbLine
 10
1216.0
 20
3340.0
 30
0.0
 11
1216.0
 21
3337.999999999999
 31
0.0
  0
LINE
  5
6A34
330
18
100
AcDbEntity
  8
1
100
AcDbLine
 10
1213.999999999999
 20
3349.300000000001
 30
0.0
 11
1214.0
 21
3338.0
 31
0.0
  0
LINE
  5
6A35
330
18
100
AcDbEntity
  8
1
100
AcDbLine
 10
1215.999999999999
 20
3338.0
 30
0.0
 11
1157.999999999999
 21
3337.999999999999
 31
0.0
  0
LINE
  5
6A36
330
18
100
AcDbEntity
  8
1
100
AcDbLine
 10
1216.0
 20
3269.0
 30
0.0
 11
1157.999999999999
 21
3269.0
 31
0.0
  0
LINE
  5
6A37
330
18
100
AcDbEntity
  8
1
100
AcDbLine
 10
1214.0
 20
3349.300000000001
 30
0.0
 11
1159.999999999999
 21
3349.300000000001
 31
0.0
  0
INSERT
  5
6A5E
330
18
100
AcDbEntity
  8
SCALE
100
AcDbBlockReference
  2
YAZ1
 10
1298.0
 20
4830.000000000001
 30
0.0
 41
40.0
 42
40.0
 43
40.0
 50
240.7978052490562
  0
LINE
  5
6A5F
330
18
100
AcDbEntity
  8
SCALE
100
AcDbLine
 10
1317.515723864444
 20
4864.916135554307
 30
0.0
 11
1429.348874534277
 21
5065.000000000002
 31
0.0
  0
TEXT
  5
6C28
330
18
100
AcDbEntity
  8
1
100
AcDbText
 10
1900.0
 20
40.0
 30
0.0
 40
70.0
  1
QGP-56
  7
MONO-SET
100
AcDbText
  0
LINE
  5
6C62
330
18
100
AcDbEntity
  8
SCALE
100
AcDbLine
 10
788.0
 20
5162.0
 30
0.0
 11
788.0
 21
5196.0
 31
0.0
  0
LINE
  5
6C63
330
18
100
AcDbEntity
  8
SCALE
100
AcDbLine
 10
1298.0
 20
4847.0
 30
0.0
 11
1298.0
 21
5196.0
 31
0.0
  0
LINE
  5
6C64
330
18
100
AcDbEntity
  8
SCALE
100
AcDbLine
 10
828.0
 20
5160.0
 30
0.0
 11
1258.0
 21
5160.0
 31
0.0
  0
INSERT
  5
6C65
330
18
100
AcDbEntity
  8
SCALE
100
AcDbBlockReference
  2
YAZ1
 10
788.0
 20
5160.0
 30
0.0
 41
40.0
 42
40.0
 43
40.0
 50
180.0
  0
INSERT
  5
6C66
330
18
100
AcDbEntity
  8
SCALE
100
AcDbBlockReference
  2
YAZ1
 10
1298.0
 20
5160.0
 30
0.0
 41
40.0
 42
40.0
 43
40.0
  0
MTEXT
  5
6C67
330
18
100
AcDbEntity
  8
SCALE
100
AcDbMText
 10
1043.0
 20
5210.0
 30
0.0
 40
50.0
 41
0.0
 71
     5
 72
     1
  1
\A1;510
1001
ACAD
1000
MTEXTBEGIN
1070
    73
1070
     1
1070
    44
1040
1.0
1070
    74
1070
     0
1000
MTEXTEND
  0
LINE
  5
6C68
330
18
100
AcDbEntity
  8
SCALE
100
AcDbLine
 10
1386.0
 20
4863.999999999999
 30
0.0
 11
1386.0
 21
5196.0
 31
0.0
  0
LINE
  5
6C69
330
18
100
AcDbEntity
  8
SCALE
100
AcDbLine
 10
1298.0
 20
4849.0
 30
0.0
 11
1298.0
 21
5196.0
 31
0.0
  0
LINE
  5
6C6A
330
18
100
AcDbEntity
  8
SCALE
100
AcDbLine
 10
1338.0
 20
5160.0
 30
0.0
 11
1346.0
 21
5160.0
 31
0.0
  0
LINE
  5
6C6B
330
18
100
AcDbEntity
  8
SCALE
100
AcDbLine
 10
1386.0
 20
5160.0
 30
0.0
 11
1509.333333333333
 21
5160.0
 31
0.0
  0
INSERT
  5
6C6C
330
18
100
AcDbEntity
  8
SCALE
100
AcDbBlockReference
  2
YAZ1
 10
1298.0
 20
5160.0
 30
0.0
 41
40.0
 42
40.0
 43
40.0
 50
180.0
  0
INSERT
  5
6C6D
330
18
100
AcDbEntity
  8
SCALE
100
AcDbBlockReference
  2
YAZ1
 10
1386.0
 20
5160.0
 30
0.0
 41
40.0
 42
40.0
 43
40.0
  0
MTEXT
  5
6C6E
330
18
100
AcDbEntity
  8
SCALE
100
AcDbMText
 10
1467.666666666666
 20
5210.0
 30
0.0
 40
50.0
 41
0.0
 71
     5
 72
     1
  1
\A1;88
1001
ACAD
1000
MTEXTBEGIN
1070
    73
1070
     1
1070
    44
1040
1.0
1070
    74
1070
     0
1000
MTEXTEND
  0
LINE
  5
6C6F
330
18
100
AcDbEntity
  8
SCALE
100
AcDbLine
 10
700.0
 20
4863.999999999999
 30
0.0
 11
700.0
 21
5196.0
 31
0.0
  0
LINE
  5
6C70
330
18
100
AcDbEntity
  8
SCALE
100
AcDbLine
 10
788.0
 20
4849.0
 30
0.0
 11
788.0
 21
5196.0
 31
0.0
  0
LINE
  5
6C71
330
18
100
AcDbEntity
  8
SCALE
100
AcDbLine
 10
748.0
 20
5160.0
 30
0.0
 11
740.0
 21
5160.0
 31
0.0
  0
LINE
  5
6C72
330
18
100
AcDbEntity
  8
SCALE
100
AcDbLine
 10
700.0
 20
5160.0
 30
0.0
 11
576.6666666666666
 21
5160.0
 31
0.0
  0
INSERT
  5
6C73
330
18
100
AcDbEntity
  8
SCALE
100
AcDbBlockReference
  2
YAZ1
 10
788.0
 20
5160.0
 30
0.0
 41
40.0
 42
40.0
 43
40.0
  0
INSERT
  5
6C74
330
18
100
AcDbEntity
  8
SCALE
100
AcDbBlockReference
  2
YAZ1
 10
700.0
 20
5160.0
 30
0.0
 41
40.0
 42
40.0
 43
40.0
 50
180.0
  0
MTEXT
  5
6C75
330
18
100
AcDbEntity
  8
SCALE
100
AcDbMText
 10
618.3333333333333
 20
5210.0
 30
0.0
 40
50.0
 41
0.0
 71
     5
 72
     1
  1
\A1;88
1001
ACAD
1000
MTEXTBEGIN
1070
    73
1070
     1
1070
    44
1040
1.0
1070
    74
1070
     0
1000
MTEXTEND
  0
LINE
  5
6C76
330
18
100
AcDbEntity
  8
SCALE
100
AcDbLine
 10
700.0
 20
4861.999999999999
 30
0.0
 11
700.0
 21
5295.999999999999
 31
0.0
  0
LINE
  5
6C77
330
18
100
AcDbEntity
  8
SCALE
100
AcDbLine
 10
1386.0
 20
4861.999999999999
 30
0.0
 11
1386.0
 21
5295.999999999999
 31
0.0
  0
LINE
  5
6C78
330
18
100
AcDbEntity
  8
SCALE
100
AcDbLine
 10
740.0
 20
5259.999999999999
 30
0.0
 11
1346.0
 21
5259.999999999999
 31
0.0
  0
INSERT
  5
6C79
330
18
100
AcDbEntity
  8
SCALE
100
AcDbBlockReference
  2
YAZ1
 10
700.0
 20
5259.999999999999
 30
0.0
 41
40.0
 42
40.0
 43
40.0
 50
180.0
  0
INSERT
  5
6C7A
330
18
100
AcDbEntity
  8
SCALE
100
AcDbBlockReference
  2
YAZ1
 10
1386.0
 20
5259.999999999999
 30
0.0
 41
40.0
 42
40.0
 43
40.0
  0
MTEXT
  5
6C7B
330
18
100
AcDbEntity
  8
SCALE
100
AcDbMText
 10
1043.0
 20
5309.999999999999
 30
0.0
 40
50.0
 41
0.0
 71
     5
 72
     1
  1
\A1;686
1001
ACAD
1000
MTEXTBEGIN
1070
    73
1070
     1
1070
    44
1040
1.0
1070
    74
1070
     0
1000
MTEXTEND
  0
LINE
  5
6C7C
330
18
100
AcDbEntity
  8
SCALE
100
AcDbLine
 10
771.0
 20
4830.0
 30
0.0
 11
364.0
 21
4830.0
 31
0.0
  0
LINE
  5
6C7D
330
18
100
AcDbEntity
  8
SCALE
100
AcDbLine
 10
698.0
 20
4859.999999999999
 30
0.0
 11
364.0
 21
4859.999999999999
 31
0.0
  0
LINE
  5
6C7E
330
18
100
AcDbEntity
  8
SCALE
100
AcDbLine
 10
400.0
 20
4790.0
 30
0.0
 11
400.0
 21
4750.0
 31
0.0
  0
LINE
  5
6C7F
330
18
100
AcDbEntity
  8
SCALE
100
AcDbLine
 10
400.0
 20
4899.999999999999
 30
0.0
 11
400.0
 21
5014.999999999999
 31
0.0
  0
LINE
  5
6C80
330
18
100
AcDbEntity
  8
SCALE
100
AcDbLine
 10
400.0
 20
4830.0
 30
0.0
 11
400.0
 21
4859.999999999999
 31
0.0
  0
INSERT
  5
6C81
330
18
100
AcDbEntity
  8
SCALE
100
AcDbBlockReference
  2
YAZ1
 10
400.0
 20
4830.0
 30
0.0
 41
40.0
 42
40.0
 43
40.0
 50
90.0
  0
INSERT
  5
6C82
330
18
100
AcDbEntity
  8
SCALE
100
AcDbBlockReference
  2
YAZ1
 10
400.0
 20
4859.999999999999
 30
0.0
 41
40.0
 42
40.0
 43
40.0
 50
270.0
  0
MTEXT
  5
6C83
330
18
100
AcDbEntity
  8
SCALE
100
AcDbMText
 10
350.0
 20
4977.499999999999
 30
0.0
 40
50.0
 41
0.0
 71
     5
 72
     1
  1
\A1;30
 11
0.0
 21
1.0
 31
0.0
1001
ACAD
1000
MTEXTBEGIN
1070
    73
1070
     1
1070
    44
1040
1.0
1070
    74
1070
     0
1000
MTEXTEND
  0
LINE
  5
6C84
330
18
100
AcDbEntity
  8
SCALE
100
AcDbLine
 10
698.0
 20
4859.999999999999
 30
0.0
 11
264.0
 21
4859.999999999999
 31
0.0
  0
LINE
  5
6C85
330
18
100
AcDbEntity
  8
SCALE
100
AcDbLine
 10
698.0
 20
4294.999999999999
 30
0.0
 11
264.0
 21
4294.999999999999
 31
0.0
  0
LINE
  5
6C86
330
18
100
AcDbEntity
  8
SCALE
100
AcDbLine
 10
300.0
 20
4819.999999999999
 30
0.0
 11
300.0
 21
4334.999999999999
 31
0.0
  0
INSERT
  5
6C87
330
18
100
AcDbEntity
  8
SCALE
100
AcDbBlockReference
  2
YAZ1
 10
300.0
 20
4859.999999999999
 30
0.0
 41
40.0
 42
40.0
 43
40.0
 50
90.0
  0
INSERT
  5
6C88
330
18
100
AcDbEntity
  8
SCALE
100
AcDbBlockReference
  2
YAZ1
 10
300.0
 20
4294.999999999999
 30
0.0
 41
40.0
 42
40.0
 43
40.0
 50
270.0
  0
MTEXT
  5
6C89
330
18
100
AcDbEntity
  8
SCALE
100
AcDbMText
 10
250.0
 20
4577.499999999999
 30
0.0
 40
50.0
 41
0.0
 71
     5
 72
     1
  1
\A1;565
 11
0.0
 21
1.0
 31
0.0
1001
ACAD
1000
MTEXTBEGIN
1070
    73
1070
     1
1070
    44
1040
1.0
1070
    74
1070
     0
1000
MTEXTEND
  0
LINE
  5
6C8A
330
18
100
AcDbEntity
  8
SCALE
100
AcDbLine
 10
769.0
 20
4325.0
 30
0.0
 11
364.0
 21
4325.0
 31
0.0
  0
LINE
  5
6C8B
330
18
100
AcDbEntity
  8
SCALE
100
AcDbLine
 10
771.0
 20
4830.0
 30
0.0
 11
364.0
 21
4830.0
 31
0.0
  0
LINE
  5
6C8C
330
18
100
AcDbEntity
  8
SCALE
100
AcDbLine
 10
400.0
 20
4365.0
 30
0.0
 11
400.0
 21
4790.0
 31
0.0
  0
INSERT
  5
6C8D
330
18
100
AcDbEntity
  8
SCALE
100
AcDbBlockReference
  2
YAZ1
 10
400.0
 20
4325.0
 30
0.0
 41
40.0
 42
40.0
 43
40.0
 50
270.0
  0
INSERT
  5
6C8E
330
18
100
AcDbEntity
  8
SCALE
100
AcDbBlockReference
  2
YAZ1
 10
400.0
 20
4830.0
 30
0.0
 41
40.0
 42
40.0
 43
40.0
 50
90.0
  0
MTEXT
  5
6C8F
330
18
100
AcDbEntity
  8
SCALE
100
AcDbMText
 10
350.0
 20
4577.499999999999
 30
0.0
 40
50.0
 41
0.0
 71
     5
 72
     1
  1
\A1;505
 11
0.0
 21
1.0
 31
0.0
1001
ACAD
1000
MTEXTBEGIN
1070
    73
1070
     1
1070
    44
1040
1.0
1070
    74
1070
     0
1000
MTEXTEND
  0
LINE
  5
6C90
330
18
100
AcDbEntity
  8
SCALE
100
AcDbLine
 10
771.0
 20
4325.0
 30
0.0
 11
364.0
 21
4325.0
 31
0.0
  0
LINE
  5
6C91
330
18
100
AcDbEntity
  8
SCALE
100
AcDbLine
 10
698.0
 20
4294.999999999999
 30
0.0
 11
364.0
 21
4294.999999999999
 31
0.0
  0
LINE
  5
6C92
330
18
100
AcDbEntity
  8
SCALE
100
AcDbLine
 10
400.0
 20
4365.0
 30
0.0
 11
400.0
 21
4405.0
 31
0.0
  0
LINE
  5
6C93
330
18
100
AcDbEntity
  8
SCALE
100
AcDbLine
 10
400.0
 20
4254.999999999999
 30
0.0
 11
400.0
 21
4139.999999999999
 31
0.0
  0
LINE
  5
6C94
330
18
100
AcDbEntity
  8
SCALE
100
AcDbLine
 10
400.0
 20
4325.0
 30
0.0
 11
400.0
 21
4294.999999999999
 31
0.0
  0
INSERT
  5
6C95
330
18
100
AcDbEntity
  8
SCALE
100
AcDbBlockReference
  2
YAZ1
 10
400.0
 20
4325.0
 30
0.0
 41
40.0
 42
40.0
 43
40.0
 50
270.0
  0
INSERT
  5
6C96
330
18
100
AcDbEntity
  8
SCALE
100
AcDbBlockReference
  2
YAZ1
 10
400.0
 20
4294.999999999999
 30
0.0
 41
40.0
 42
40.0
 43
40.0
 50
90.0
  0
MTEXT
  5
6C97
330
18
100
AcDbEntity
  8
SCALE
100
AcDbMText
 10
350.0
 20
4177.499999999999
 30
0.0
 40
50.0
 41
0.0
 71
     5
 72
     1
  1
\A1;30
 11
0.0
 21
1.0
 31
0.0
1001
ACAD
1000
MTEXTBEGIN
1070
    73
1070
     1
1070
    44
1040
1.0
1070
    74
1070
     0
1000
MTEXTEND
  0
LINE
  5
6C98
330
18
100
AcDbEntity
  8
SCALE
100
AcDbLine
 10
698.0
 20
3237.0
 30
0.0
 11
264.0
 21
3237.0
 31
0.0
  0
LINE
  5
6C99
330
18
100
AcDbEntity
  8
SCALE
100
AcDbLine
 10
337.3261593449351
 20
3362.0
 30
0.0
 11
264.0
 21
3362.0
 31
0.0
  0
LINE
  5
6C9A
330
18
100
AcDbEntity
  8
SCALE
100
AcDbLine
 10
300.0
 20
3277.0
 30
0.0
 11
300.0
 21
3322.0
 31
0.0
  0
MTEXT
  5
6C9B
330
18
100
AcDbEntity
  8
SCALE
100
AcDbMText
 10
239.0
 20
3299.5
 30
0.0
 40
50.0
 41
0.0
 71
     5
 72
     1
  1
\A1;据付時約125
 11
0.0
 21
1.0
 31
0.0
1001
ACAD
1000
MTEXTBEGIN
1070
    73
1070
     1
1070
    44
1040
1.0
1070
    74
1070
     0
1000
MTEXTEND
  0
INSERT
  5
6C9C
330
18
100
AcDbEntity
  8
SCALE
100
AcDbBlockReference
  2
YAZ1
 10
300.0
 20
3237.0
 30
0.0
 41
40.0
 42
40.0
 43
40.0
 50
270.0
  0
INSERT
  5
6C9D
330
18
100
AcDbEntity
  8
SCALE
100
AcDbBlockReference
  2
YAZ1
 10
300.0
 20
3362.0
 30
0.0
 41
40.0
 42
40.0
 43
40.0
 50
90.0
  0
LINE
  5
6C9E
330
18
100
AcDbEntity
  8
SCALE
100
AcDbLine
 10
698.0
 20
3340.0
 30
0.0
 11
464.0
 21
3340.0
 31
0.0
  0
LINE
  5
6C9F
330
18
100
AcDbEntity
  8
SCALE
100
AcDbLine
 10
698.0
 20
3370.0
 30
0.0
 11
464.0
 21
3370.0
 31
0.0
  0
LINE
  5
6CA0
330
18
100
AcDbEntity
  8
SCALE
100
AcDbLine
 10
500.0
 20
3320.0
 30
0.0
 11
500.0
 21
3300.0
 31
0.0
  0
LINE
  5
6CA1
330
18
100
AcDbEntity
  8
SCALE
100
AcDbLine
 10
500.0
 20
3390.0
 30
0.0
 11
500.0
 21
3485.000000000001
 31
0.0
  0
LINE
  5
6CA2
330
18
100
AcDbEntity
  8
SCALE
100
AcDbLine
 10
500.0
 20
3340.0
 30
0.0
 11
500.0
 21
3370.0
 31
0.0
  0
INSERT
  5
6CA3
330
18
100
AcDbEntity
  8
SCALE
100
AcDbBlockReference
  2
DOT1
 10
500.0
 20
3340.0
 30
0.0
 41
20.0
 42
20.0
 43
20.0
 50
90.0
  0
INSERT
  5
6CA4
330
18
100
AcDbEntity
  8
SCALE
100
AcDbBlockReference
  2
DOT1
 10
500.0
 20
3370.0
 30
0.0
 41
20.0
 42
20.0
 43
20.0
 50
270.0
  0
MTEXT
  5
6CA5
330
18
100
AcDbEntity
  8
SCALE
100
AcDbMText
 10
450.0
 20
3447.500000000001
 30
0.0
 40
50.0
 41
0.0
 71
     5
 72
     1
  1
\A1;30
 11
0.0
 21
1.0
 31
0.0
1001
ACAD
1000
MTEXTBEGIN
1070
    73
1070
     1
1070
    44
1040
1.0
1070
    74
1070
     0
1000
MTEXTEND
  0
LINE
  5
6CA6
330
18
100
AcDbEntity
  8
SCALE
100
AcDbLine
 10
698.0
 20
3237.0
 30
0.0
 11
364.0
 21
3237.0
 31
0.0
  0
LINE
  5
6CA7
330
18
100
AcDbEntity
  8
SCALE
100
AcDbLine
 10
698.0
 20
3370.0
 30
0.0
 11
364.0
 21
3370.0
 31
0.0
  0
LINE
  5
6CA8
330
18
100
AcDbEntity
  8
SCALE
100
AcDbLine
 10
400.0
 20
3277.0
 30
0.0
 11
400.0
 21
3330.0
 31
0.0
  0
MTEXT
  5
6CA9
330
18
100
AcDbEntity
  8
SCALE
100
AcDbMText
 10
339.0
 20
3303.5
 30
0.0
 40
50.0
 41
0.0
 71
     5
 72
     1
  1
\A1;133
 11
0.0
 21
1.0
 31
0.0
1001
ACAD
1000
MTEXTBEGIN
1070
    73
1070
     1
1070
    44
1040
1.0
1070
    74
1070
     0
1000
MTEXTEND
  0
INSERT
  5
6CAA
330
18
100
AcDbEntity
  8
SCALE
100
AcDbBlockReference
  2
YAZ1
 10
400.0
 20
3237.0
 30
0.0
 41
40.0
 42
40.0
 43
40.0
 50
270.0
  0
INSERT
  5
6CAB
330
18
100
AcDbEntity
  8
SCALE
100
AcDbBlockReference
  2
YAZ1
 10
400.0
 20
3370.0
 30
0.0
 41
40.0
 42
40.0
 43
40.0
 50
90.0
  0
LINE
  5
6CAC
330
18
100
AcDbEntity
  8
SCALE
100
AcDbLine
 10
697.0
 20
3267.0
 30
0.0
 11
464.0
 21
3267.0
 31
0.0
  0
LINE
  5
6CAD
330
18
100
AcDbEntity
  8
SCALE
100
AcDbLine
 10
698.0
 20
3237.0
 30
0.0
 11
464.0
 21
3237.0
 31
0.0
  0
LINE
  5
6CAE
330
18
100
AcDbEntity
  8
SCALE
100
AcDbLine
 10
500.0
 20
3287.0
 30
0.0
 11
500.0
 21
3307.0
 31
0.0
  0
LINE
  5
6CAF
330
18
100
AcDbEntity
  8
SCALE
100
AcDbLine
 10
500.0
 20
3217.0
 30
0.0
 11
500.0
 21
3122.0
 31
0.0
  0
LINE
  5
6CB0
330
18
100
AcDbEntity
  8
SCALE
100
AcDbLine
 10
500.0
 20
3267.0
 30
0.0
 11
500.0
 21
3237.0
 31
0.0
  0
INSERT
  5
6CB1
330
18
100
AcDbEntity
  8
SCALE
100
AcDbBlockReference
  2
DOT1
 10
500.0
 20
3267.0
 30
0.0
 41
20.0
 42
20.0
 43
20.0
 50
270.0
  0
INSERT
  5
6CB2
330
18
100
AcDbEntity
  8
SCALE
100
AcDbBlockReference
  2
DOT1
 10
500.0
 20
3237.0
 30
0.0
 41
20.0
 42
20.0
 43
20.0
 50
90.0
  0
MTEXT
  5
6CB3
330
18
100
AcDbEntity
  8
SCALE
100
AcDbMText
 10
450.0
 20
3159.5
 30
0.0
 40
50.0
 41
0.0
 71
     5
 72
     1
  1
\A1;30
 11
0.0
 21
1.0
 31
0.0
1001
ACAD
1000
MTEXTBEGIN
1070
    73
1070
     1
1070
    44
1040
1.0
1070
    74
1070
     0
1000
MTEXTEND
  0
LINE
  5
6CB4
330
18
100
AcDbEntity
  8
SCALE
100
AcDbLine
 10
980.5000387828748
 20
2761.998731850532
 30
0.0
 11
980.5000387828748
 21
2795.998731850533
 31
0.0
  0
LINE
  5
6CB5
330
18
100
AcDbEntity
  8
SCALE
100
AcDbLine
 10
1043.0
 20
2661.998731850532
 30
0.0
 11
1043.0
 21
2795.998731850533
 31
0.0
  0
LINE
  5
6CB6
330
18
100
AcDbEntity
  8
SCALE
100
AcDbLine
 10
940.5000387828748
 20
2759.998731850533
 30
0.0
 11
900.5000387828747
 21
2759.998731850533
 31
0.0
  0
LINE
  5
6CB7
330
18
100
AcDbEntity
  8
SCALE
100
AcDbLine
 10
1083.0
 20
2759.998731850533
 30
0.0
 11
1239.666666666666
 21
2759.998731850533
 31
0.0
  0
LINE
  5
6CB8
330
18
100
AcDbEntity
  8
SCALE
100
AcDbLine
 10
980.5000387828748
 20
2759.998731850533
 30
0.0
 11
1043.0
 21
2759.998731850533
 31
0.0
  0
INSERT
  5
6CB9
330
18
100
AcDbEntity
  8
SCALE
100
AcDbBlockReference
  2
YAZ1
 10
980.5000387828748
 20
2759.998731850533
 30
0.0
 41
40.0
 42
40.0
 43
40.0
  0
INSERT
  5
6CBA
330
18
100
AcDbEntity
  8
SCALE
100
AcDbBlockReference
  2
YAZ1
 10
1043.0
 20
2759.998731850533
 30
0.0
 41
40.0
 42
40.0
 43
40.0
 50
180.0
  0
MTEXT
  5
6CBB
330
18
100
AcDbEntity
  8
SCALE
100
AcDbMText
 10
1181.333333333333
 20
2809.998731850532
 30
0.0
 40
50.0
 41
0.0
 71
     5
 72
     1
  1
\A1;125
1001
ACAD
1000
MTEXTBEGIN
1070
    73
1070
     1
1070
    44
1040
1.0
1070
    74
1070
     0
1000
MTEXTEND
  0
LINE
  5
6CBC
330
18
100
AcDbEntity
  8
SCALE
100
AcDbLine
 10
980.5000387828732
 20
2656.864399670879
 30
0.0
 11
980.5000387828732
 21
2795.998731850532
 31
0.0
  0
LINE
  5
6CBD
330
18
100
AcDbEntity
  8
SCALE
100
AcDbLine
 10
762.5000387828732
 20
2656.864399670879
 30
0.0
 11
762.5000387828732
 21
2795.998731850532
 31
0.0
  0
LINE
  5
6CBE
330
18
100
AcDbEntity
  8
SCALE
100
AcDbLine
 10
940.5000387828732
 20
2759.998731850532
 30
0.0
 11
802.5000387828733
 21
2759.998731850532
 31
0.0
  0
INSERT
  5
6CBF
330
18
100
AcDbEntity
  8
SCALE
100
AcDbBlockReference
  2
YAZ1
 10
980.5000387828732
 20
2759.998731850532
 30
0.0
 41
40.0
 42
40.0
 43
40.0
  0
INSERT
  5
6CC0
330
18
100
AcDbEntity
  8
SCALE
100
AcDbBlockReference
  2
YAZ1
 10
762.5000387828732
 20
2759.998731850532
 30
0.0
 41
40.0
 42
40.0
 43
40.0
 50
180.0
  0
MTEXT
  5
6CC1
330
18
100
AcDbEntity
  8
SCALE
100
AcDbMText
 10
871.5000387828732
 20
2809.998731850532
 30
0.0
 40
50.0
 41
0.0
 71
     5
 72
     1
  1
\A1;436
1001
ACAD
1000
MTEXTBEGIN
1070
    73
1070
     1
1070
    44
1040
1.0
1070
    74
1070
     0
1000
MTEXTEND
  0
LINE
  5
6CC2
330
18
100
AcDbEntity
  8
SCALE
100
AcDbLine
 10
762.5000387828765
 20
2761.998731850532
 30
0.0
 11
762.5000387828765
 21
2795.998731850533
 31
0.0
  0
LINE
  5
6CC3
330
18
100
AcDbEntity
  8
SCALE
100
AcDbLine
 10
700.0
 20
2661.998731850532
 30
0.0
 11
700.0
 21
2795.998731850533
 31
0.0
  0
LINE
  5
6CC4
330
18
100
AcDbEntity
  8
SCALE
100
AcDbLine
 10
802.5000387828765
 20
2759.998731850533
 30
0.0
 11
842.5000387828765
 21
2759.998731850533
 31
0.0
  0
LINE
  5
6CC5
330
18
100
AcDbEntity
  8
SCALE
100
AcDbLine
 10
660.0
 20
2759.998731850533
 30
0.0
 11
503.3333333333334
 21
2759.998731850533
 31
0.0
  0
LINE
  5
6CC6
330
18
100
AcDbEntity
  8
SCALE
100
AcDbLine
 10
762.5000387828765
 20
2759.998731850533
 30
0.0
 11
700.0
 21
2759.998731850533
 31
0.0
  0
INSERT
  5
6CC7
330
18
100
AcDbEntity
  8
SCALE
100
AcDbBlockReference
  2
YAZ1
 10
762.5000387828765
 20
2759.998731850533
 30
0.0
 41
40.0
 42
40.0
 43
40.0
 50
180.0
  0
INSERT
  5
6CC8
330
18
100
AcDbEntity
  8
SCALE
100
AcDbBlockReference
  2
YAZ1
 10
700.0
 20
2759.998731850533
 30
0.0
 41
40.0
 42
40.0
 43
40.0
  0
MTEXT
  5
6CC9
330
18
100
AcDbEntity
  8
SCALE
100
AcDbMText
 10
561.6666666666667
 20
2809.998731850532
 30
0.0
 40
50.0
 41
0.0
 71
     5
 72
     1
  1
\A1;125
1001
ACAD
1000
MTEXTBEGIN
1070
    73
1070
     1
1070
    44
1040
1.0
1070
    74
1070
     0
1000
MTEXTEND
  0
LINE
  5
6CCA
330
18
100
AcDbEntity
  8
SCALE
100
AcDbLine
 10
750.6343571586768
 20
2644.998718046682
 30
0.0
 11
364.0
 21
2644.998718046682
 31
0.0
  0
LINE
  5
6CCB
330
18
100
AcDbEntity
  8
SCALE
100
AcDbLine
 10
750.6343571586768
 20
2392.498718046682
 30
0.0
 11
364.0
 21
2392.498718046682
 31
0.0
  0
LINE
  5
6CCC
330
18
100
AcDbEntity
  8
SCALE
100
AcDbLine
 10
400.0
 20
2604.998718046682
 30
0.0
 11
400.0
 21
2432.498718046682
 31
0.0
  0
INSERT
  5
6CCD
330
18
100
AcDbEntity
  8
SCALE
100
AcDbBlockReference
  2
YAZ1
 10
400.0
 20
2644.998718046682
 30
0.0
 41
40.0
 42
40.0
 43
40.0
 50
90.0
  0
INSERT
  5
6CCE
330
18
100
AcDbEntity
  8
SCALE
100
AcDbBlockReference
  2
YAZ1
 10
400.0
 20
2392.498718046682
 30
0.0
 41
40.0
 42
40.0
 43
40.0
 50
270.0
  0
MTEXT
  5
6CCF
330
18
100
AcDbEntity
  8
SCALE
100
AcDbMText
 10
350.0
 20
2518.748718046682
 30
0.0
 40
50.0
 41
0.0
 71
     5
 72
     1
  1
\A1;505
 11
0.0
 21
1.0
 31
0.0
1001
ACAD
1000
MTEXTBEGIN
1070
    73
1070
     1
1070
    44
1040
1.0
1070
    74
1070
     0
1000
MTEXTEND
  0
LINE
  5
6CD0
330
18
100
AcDbEntity
  8
SCALE
100
AcDbLine
 10
397.9999999999997
 20
2392.498718046682
 30
0.0
 11
363.9999999999997
 21
2392.498718046682
 31
0.0
  0
LINE
  5
6CD1
330
18
100
AcDbEntity
  8
SCALE
100
AcDbLine
 10
698.0
 20
2377.498731850532
 30
0.0
 11
363.9999999999997
 21
2377.498731850532
 31
0.0
  0
LINE
  5
6CD2
330
18
100
AcDbEntity
  8
SCALE
100
AcDbLine
 10
399.9999999999997
 20
2432.498718046682
 30
0.0
 11
399.9999999999997
 21
2472.498718046682
 31
0.0
  0
LINE
  5
6CD3
330
18
100
AcDbEntity
  8
SCALE
100
AcDbLine
 10
399.9999999999997
 20
2337.498731850533
 30
0.0
 11
399.9999999999997
 21
2222.498731850532
 31
0.0
  0
LINE
  5
6CD4
330
18
100
AcDbEntity
  8
SCALE
100
AcDbLine
 10
399.9999999999997
 20
2392.498718046682
 30
0.0
 11
399.9999999999997
 21
2377.498731850532
 31
0.0
  0
INSERT
  5
6CD5
330
18
100
AcDbEntity
  8
SCALE
100
AcDbBlockReference
  2
YAZ1
 10
399.9999999999997
 20
2392.498718046682
 30
0.0
 41
40.0
 42
40.0
 43
40.0
 50
270.0
  0
INSERT
  5
6CD6
330
18
100
AcDbEntity
  8
SCALE
100
AcDbBlockReference
  2
YAZ1
 10
399.9999999999997
 20
2377.498731850532
 30
0.0
 41
40.0
 42
40.0
 43
40.0
 50
90.0
  0
MTEXT
  5
6CD7
330
18
100
AcDbEntity
  8
SCALE
100
AcDbMText
 10
349.9999999999997
 20
2259.998731850533
 30
0.0
 40
50.0
 41
0.0
 71
     5
 72
     1
  1
\A1;30
 11
0.0
 21
1.0
 31
0.0
1001
ACAD
1000
MTEXTBEGIN
1070
    73
1070
     1
1070
    44
1040
1.0
1070
    74
1070
     0
1000
MTEXTEND
  0
LINE
  5
6CD8
330
18
100
AcDbEntity
  8
SCALE
100
AcDbLine
 10
398.0
 20
2644.998718046682
 30
0.0
 11
364.0
 21
2644.998718046682
 31
0.0
  0
LINE
  5
6CD9
330
18
100
AcDbEntity
  8
SCALE
100
AcDbLine
 10
698.0
 20
2659.998731850532
 30
0.0
 11
364.0
 21
2659.998731850532
 31
0.0
  0
LINE
  5
6CDA
330
18
100
AcDbEntity
  8
SCALE
100
AcDbLine
 10
400.0
 20
2604.998718046682
 30
0.0
 11
400.0
 21
2564.998718046682
 31
0.0
  0
LINE
  5
6CDB
330
18
100
AcDbEntity
  8
SCALE
100
AcDbLine
 10
400.0
 20
2699.998731850532
 30
0.0
 11
400.0
 21
2814.998731850533
 31
0.0
  0
LINE
  5
6CDC
330
18
100
AcDbEntity
  8
SCALE
100
AcDbLine
 10
400.0
 20
2644.998718046682
 30
0.0
 11
400.0
 21
2659.998731850532
 31
0.0
  0
INSERT
  5
6CDD
330
18
100
AcDbEntity
  8
SCALE
100
AcDbBlockReference
  2
YAZ1
 10
400.0
 20
2644.998718046682
 30
0.0
 41
40.0
 42
40.0
 43
40.0
 50
90.0
  0
INSERT
  5
6CDE
330
18
100
AcDbEntity
  8
SCALE
100
AcDbBlockReference
  2
YAZ1
 10
400.0
 20
2659.998731850532
 30
0.0
 41
40.0
 42
40.0
 43
40.0
 50
270.0
  0
MTEXT
  5
6CDF
330
18
100
AcDbEntity
  8
SCALE
100
AcDbMText
 10
350.0
 20
2777.498731850533
 30
0.0
 40
50.0
 41
0.0
 71
     5
 72
     1
  1
\A1;30
 11
0.0
 21
1.0
 31
0.0
1001
ACAD
1000
MTEXTBEGIN
1070
    73
1070
     1
1070
    44
1040
1.0
1070
    74
1070
     0
1000
MTEXTEND
  0
LINE
  5
6CE2
330
18
100
AcDbEntity
  8
GAWA
 62
     2
100
AcDbLine
 10
160.0
 20
5616.0
 30
0.0
 11
3759.999999999999
 21
5616.0
 31
0.0
  0
LINE
  5
6CE4
330
18
100
AcDbEntity
  8
GAWA
 62
     2
100
AcDbLine
 10
160.0
 20
5616.0
 30
0.0
 11
160.0
 21
-0.0000000000000178
 31
0.0
  0
LINE
  5
6D6F
330
18
100
AcDbEntity
  8
GAWA
 62
     9
100
AcDbLine
 10
970.0
 20
20.0
 30
0.0
 11
1010.0
 21
100.0
 31
0.0
  0
LINE
  5
6DB3
330
18
100
AcDbEntity
  8
GAWA
 62
     2
100
AcDbLine
 10
3760.000000000001
 20
5616.0
 30
0.0
 11
3760.000000000001
 21
-0.0000000000009059
 31
0.0
  0
LINE
  5
6DC0
330
18
100
AcDbEntity
  8
GAWA
 62
     2
100
AcDbLine
 10
160.0
 20
0.0
 30
0.0
 11
3759.999999999999
 21
0.0
 31
0.0
  0
LINE
  5
6DC1
330
18
100
AcDbEntity
  8
GAWA
 62
     2
100
AcDbLine
 10
160.0
 20
0.0
 30
0.0
 11
3759.999999999999
 21
0.0
 31
0.0
  0
ENDSEC
  0
SECTION
  2
OBJECTS
  0
DICTIONARY
  5
C
330
0
100
AcDbDictionary
  3
ACAD_GROUP
350
D
  3
ACAD_LAYOUT
350
6C31
  3
ACAD_MLINESTYLE
350
E
  3
ACAD_PLOTSETTINGS
350
6C32
1001
ACAD
1000
TREAT_AS_HARD
1070
     0
  0
DICTIONARY
  5
6DCF
330
18
100
AcDbDictionary
  3
ACAD_LAYOUTSELFREF
350
6DD0
  0
DICTIONARY
  5
6DCD
330
15
100
AcDbDictionary
  3
ACAD_LAYOUTSELFREF
350
6DCE
  0
DICTIONARY
  5
D
102
{ACAD_REACTORS
330
C
102
}
330
C
100
AcDbDictionary
1001
ACAD
1000
TREAT_AS_HARD
1070
     0
  0
DICTIONARY
  5
6C31
102
{ACAD_REACTORS
330
C
102
}
330
C
100
AcDbDictionary
1001
ACAD
1000
TREAT_AS_HARD
1070
     0
  0
DICTIONARY
  5
E
102
{ACAD_REACTORS
330
C
102
}
330
C
100
AcDbDictionary
  3
STANDARD
350
1B
1001
ACAD
1000
TREAT_AS_HARD
1070
     0
  0
DICTIONARY
  5
6C32
102
{ACAD_REACTORS
330
C
102
}
330
C
100
AcDbDictionary
1001
ACAD
1000
TREAT_AS_HARD
1070
     0
  0
XRECORD
  5
6DD0
102
{ACAD_REACTORS
330
6DCF
102
}
330
6DCF
100
AcDbXrecord
340
18
  0
XRECORD
  5
6DCE
102
{ACAD_REACTORS
330
6DCD
102
}
330
6DCD
100
AcDbXrecord
340
15
  0
MLINESTYLE
  5
1B
102
{ACAD_REACTORS
330
E
102
}
330
E
100
AcDbMlineStyle
  2
STANDARD
 70
     0
  3

 62
     0
 51
90.0
 52
90.0
 71
     2
 49
0.5
 62
   256
  6
BYLAYER
 49
-0.5
 62
   256
  6
BYLAYER
  0
ENDSEC
  0
EOF
